0
SECTION
2
HEADER
9
$INSUNITS
70
4
9
$ACADVER
1
AC1014
9
$HANDSEED
5
FFFF
0
ENDSEC
0
SECTION
2
TABLES
0
TABLE
2
VPORT
5
8
100
AcDbSymbolTable
0
ENDTAB
0
TABLE
2
LTYPE
5
5
100
AcDbSymbolTable
0
LTYPE
5
14
100
AcDbSymbolTableRecord
100
AcDbLinetypeTableRecord
2
BYBLOCK
70
0
0
LTYPE
5
15
100
AcDbSymbolTableRecord
100
AcDbLinetypeTableRecord
2
BYLAYER
70
0
0
ENDTAB
0
TABLE
2
LAYER
5
2
100
AcDbSymbolTable
70
2
0
LAYER
5
50
100
AcDbSymbolTableRecord
100
AcDbLayerTableRecord
2
0
70
0
6
CONTINUOUS
0
ENDTAB
0
TABLE
2
STYLE
5
3
100
AcDbSymbolTable
70
1
0
STYLE
5
11
100
AcDbSymbolTableRecord
100
AcDbTextStyleTableRecord
2
STANDARD
70
0
0
ENDTAB
0
TABLE
2
VIEW
5
6
100
AcDbSymbolTable
70
0
0
ENDTAB
0
TABLE
2
UCS
5
7
100
AcDbSymbolTable
70
0
0
ENDTAB
0
TABLE
2
APPID
5
9
100
AcDbSymbolTable
70
2
0
APPID
5
12
100
AcDbSymbolTableRecord
100
AcDbRegAppTableRecord
2
ACAD
70
0
0
ENDTAB
0
TABLE
2
DIMSTYLE
5
A
100
AcDbSymbolTable
70
1
0
ENDTAB
0
TABLE
2
BLOCK_RECORD
5
1
100
AcDbSymbolTable
70
1
0
BLOCK_RECORD
5
1F
100
AcDbSymbolTableRecord
100
AcDbBlockTableRecord
2
*MODEL_SPACE
0
BLOCK_RECORD
5
1B
100
AcDbSymbolTableRecord
100
AcDbBlockTableRecord
2
*PAPER_SPACE
0
ENDTAB
0
ENDSEC
0
SECTION
2
BLOCKS
0
BLOCK
5
20
100
AcDbEntity
100
AcDbBlockBegin
2
*MODEL_SPACE
0
ENDBLK
5
21
100
AcDbEntity
100
AcDbBlockEnd
0
BLOCK
5
1C
100
AcDbEntity
100
AcDbBlockBegin
2
*PAPER_SPACE
0
ENDBLK
5
1D
100
AcDbEntity
100
AcDbBlockEnd
0
ENDSEC
0
SECTION
2
ENTITIES
0
LWPOLYLINE
5
100
100
AcDbEntity
8
0
100
AcDbPolyline
90
28
70
1
43
0.0
10
121.34997558593693
20
2472.8075436083045
42
0.99999999999999989
10
125.62853729754036
20
2468.5289818967008
10
156.34997558593687
20
2468.5289818967012
10
156.34997558593679
20
2046.5289818967012
10
125.62853729754067
20
2046.5289818967008
42
1.0000000074505806
10
121.34997558593683
20
2042.2504201850979
10
121.34997558593679
20
2034.5289818967012
10
41.349975585936789
20
2034.5289818967012
10
41.349975585936775
20
2042.2504201850975
42
1.0000000074505806
10
37.071413874333054
20
2046.5289818967012
10
6.3499755859368001
20
2046.5289818967012
10
6.3499755859368134
20
2095.4216137665562
10
20.071413874333182
20
2095.4216137665562
42
0.99999999999999989
10
24.349975585936811
20
2099.70017547816
10
24.349975585936775
20
2171.1430520549529
42
1.0000000074505806
10
20.071413874333022
20
2175.4216137665562
10
6.3499755859368285
20
2175.4216137665562
10
6.3499755859368667
20
2339.6363500268462
10
20.071413874333281
20
2339.6363500268462
42
0.99999999999999989
10
24.349975585936864
20
2343.9149117384495
10
24.349975585936939
20
2415.3577883152429
42
0.99999999999999989
10
20.071413874333025
20
2419.6363500268462
10
6.3499755859368836
20
2419.6363500268462
10
6.3499755859368934
20
2468.5289818967012
10
37.071413874333338
20
2468.5289818967012
42
0.99999999999999989
10
41.349975585936896
20
2472.807543608305
10
41.349975585936889
20
2480.5289818967012
10
121.34997558593689
20
2480.5289818967012
0
LWPOLYLINE
5
101
100
AcDbEntity
8
0
100
AcDbPolyline
90
40
70
1
43
0.0
10
590.84197545793722
20
2514.8078585866033
42
0.99999999999999989
10
595.12053716954097
20
2510.529296875
10
666.3499755859375
20
2510.529296875
10
666.34997558593773
20
2046.529296875
10
595.12053716954097
20
2046.5292968749998
42
0.99999999999999989
10
590.84197545793734
20
2042.2507351633965
10
590.84197545793734
20
2028.529296875
10
510.84197545793734
20
2028.529296875
10
510.84197545793728
20
2042.2507351633963
42
0.99999999999999989
10
506.56341374633382
20
2046.529296875
10
344.12853729754136
20
2046.5292968749998
42
0.99999999999999989
10
339.8499755859375
20
2042.2507351633967
10
339.8499755859375
20
2028.529296875
10
259.8499755859375
20
2028.529296875
10
259.84997558593744
20
2042.2507351633965
42
0.99999999999999989
10
255.57141387433362
20
2046.529296875
10
184.34997558593761
20
2046.529296875
10
184.34997558593767
20
2117.7507351633967
42
0.99999999999999989
10
180.07141387433387
20
2122.029296875
10
166.34997558593753
20
2122.029296875
10
166.34997558593753
20
2202.029296875
10
180.07141387433376
20
2202.029296875
42
0.99999999999999989
10
184.34997558593761
20
2206.3078585866033
10
184.34997558593761
20
2350.7507351633967
42
0.99999999999999989
10
180.07141387433381
20
2355.029296875
10
166.34997558593753
20
2355.029296875
10
166.3499755859375
20
2435.029296875
10
180.07141387433379
20
2435.029296875
42
0.99999999999999989
10
184.34997558593761
20
2439.3078585866033
10
184.34997558593761
20
2510.529296875
10
255.57141387433379
20
2510.529296875
42
0.99999999999999989
10
259.84997558593739
20
2514.8078585866033
10
259.84997558593739
20
2528.529296875
10
339.84997558593739
20
2528.5292968749995
10
339.84997558593733
20
2514.8078585866033
42
0.99999999999999989
10
344.12853729754096
20
2510.529296875
10
506.56341374633365
20
2510.529296875
42
0.99999999999999989
10
510.84197545793728
20
2514.8078585866033
10
510.84197545793728
20
2528.529296875
10
590.84197545793722
20
2528.529296875
0
LWPOLYLINE
5
102
100
AcDbEntity
8
0
100
AcDbPolyline
90
8
70
1
43
0.0
10
862.34997558593716
20
2430.7507351633972
42
0.99999999999999989
10
858.0714138743333
20
2435.0292968750009
10
848.62853729754102
20
2435.0292968750005
42
0.99999999999999989
10
844.34997558593727
20
2430.7507351633972
10
844.34997558593705
20
2359.3078585866037
42
0.99999999999999989
10
848.62853729754079
20
2355.0292968750005
10
858.07141387433364
20
2355.0292968750005
42
0.99999999999999989
10
862.34997558593716
20
2359.3078585866042
0
LWPOLYLINE
5
103
100
AcDbEntity
8
0
100
AcDbPolyline
90
8
70
1
43
0.0
10
858.0714138743333
20
2104.0372970030007
42
0.99999999999999989
10
862.34997558593716
20
2108.315858714604
10
862.34997558593693
20
2179.758735291397
42
0.99999999999999989
10
858.0714138743333
20
2184.0372970030007
10
848.6285372975409
20
2184.0372970030003
42
0.99999999999999989
10
844.34997558593705
20
2179.7587352913974
10
844.34997558593705
20
2108.315858714604
42
0.99999999999999989
10
848.62853729754067
20
2104.0372970030007
0
LWPOLYLINE
5
104
100
AcDbEntity
8
0
100
AcDbPolyline
90
50
70
1
43
0.0
10
724.75731135779381
20
2514.8078585866047
42
0.99999999999999989
10
729.03587306939744
20
2510.5292968750014
10
800.47874964619029
20
2510.5292968750005
42
0.99999999999999989
10
804.75731135779381
20
2514.8078585866042
10
804.75731135779381
20
2528.5292968750005
10
939.38112661641071
20
2528.5292968750005
10
939.38112661641071
20
2514.8078585866042
42
0.99999999999999989
10
943.65968832801423
20
2510.5292968750005
10
1015.1025649048072
20
2510.5292968750005
42
0.99999999999999989
10
1019.3811266164107
20
2514.8078585866042
10
1019.3811266164107
20
2528.529296875
10
1139.3811266164107
20
2528.5292968750005
10
1139.3811266164107
20
2514.8078585866042
42
0.99999999999999989
10
1143.6596883280142
20
2510.5292968750005
10
1215.1025649048072
20
2510.5292968750005
42
0.99999999999999989
10
1219.3811266164107
20
2514.8078585866037
10
1219.3811266164107
20
2528.529296875
10
1339.3811266164107
20
2528.529296875
10
1339.3811266164109
20
2514.8078585866042
42
0.99999999999999989
10
1343.6596883280145
20
2510.529296875
10
1415.1025649048072
20
2510.529296875
42
0.99999999999999989
10
1419.3811266164107
20
2514.8078585866037
10
1419.3811266164107
20
2528.529296875
10
1539.3811266164107
20
2528.529296875
10
1539.3811266164109
20
2514.8078585866042
42
0.99999999999999989
10
1543.6596883280145
20
2510.529296875
10
1615.1025649048072
20
2510.529296875
42
0.99999999999999989
10
1619.3811266164107
20
2514.8078585866037
10
1619.3811266164107
20
2528.529296875
10
1688.3499755859373
20
2528.529296875
10
1688.3499755859373
20
2438.529296875
10
1188.3499755859373
20
2438.529296875
42
0.99999999999999989
10
1188.3499755859373
20
2118.5292968750009
10
1688.3499755859373
20
2118.5292968749995
10
1688.3499755859373
20
2028.5292968750002
10
688.34997558593716
20
2028.5292968750002
10
688.34997558593727
20
2099.7507351633972
42
0.99999999999999989
10
684.0714138743333
20
2104.0292968750005
10
676.34997558593705
20
2104.0292968750005
10
676.34997558593705
20
2184.0292968750005
10
684.07141387433353
20
2184.0292968750005
42
0.99999999999999989
10
688.34997558593727
20
2188.3078585866037
10
688.34997558593727
20
2368.7507351633972
42
0.99999999999999989
10
684.07141387433353
20
2373.0292968750005
10
676.34997558593727
20
2373.0292968750009
10
676.34997558593727
20
2453.0292968750009
10
684.07141387433387
20
2453.0292968750009
42
0.99999999999999989
10
688.34997558593727
20
2457.3078585866042
10
688.34997558593727
20
2528.5292968750005
10
724.75731135779381
20
2528.5292968750005
0
LWPOLYLINE
5
105
100
AcDbEntity
8
0
100
AcDbPolyline
90
8
70
1
43
0.0
10
1963.1204833984382
20
2265.120537169541
42
0.99999999999999989
10
1967.3990451100408
20
2260.8419754579372
10
1976.8419216868347
20
2260.8419754579372
42
0.99999999999999989
10
1981.120483398438
20
2265.120537169541
10
1981.1204833984377
20
2336.5634137463339
42
0.99999999999999989
10
1976.8419216868344
20
2340.8419754579372
10
1967.3990451100415
20
2340.8419754579372
42
0.99999999999999989
10
1963.120483398438
20
2336.5634137463339
0
LWPOLYLINE
5
106
100
AcDbEntity
8
0
100
AcDbPolyline
90
8
70
1
43
0.0
10
1981.1204833984375
20
2085.5714138743338
42
0.99999999999999989
10
1976.8419216868342
20
2089.849975585937
10
1967.3990451100415
20
2089.8499755859375
42
0.99999999999999989
10
1963.120483398438
20
2085.5714138743338
10
1963.120483398438
20
2014.1285372975408
42
0.99999999999999989
10
1967.3990451100415
20
2009.8499755859373
10
1976.8419216868335
20
2009.8499755859375
42
0.99999999999999989
10
1981.1204833984377
20
2014.1285372975408
0
LWPOLYLINE
5
107
100
AcDbEntity
8
0
100
AcDbPolyline
90
50
70
1
43
0.0
10
2100.7131476265813
20
1930.0714138743338
42
0.99999999999999989
10
2096.4345859149771
20
1934.349975585937
10
2024.9917093381848
20
1934.3499755859373
42
0.99999999999999989
10
2020.7131476265813
20
1930.0714138743338
10
2020.7131476265813
20
1916.3499755859375
10
1886.0893323679643
20
1916.3499755859375
10
1886.0893323679643
20
1930.0714138743338
42
0.99999999999999989
10
1881.8107706563605
20
1934.3499755859375
10
1810.3678940795676
20
1934.3499755859373
42
0.99999999999999989
10
1806.0893323679643
20
1930.0714138743338
10
1806.0893323679643
20
1916.3499755859375
10
1686.0893323679643
20
1916.3499755859375
10
1686.0893323679643
20
1930.071413874334
42
0.99999999999999989
10
1681.810770656361
20
1934.3499755859375
10
1610.3678940795676
20
1934.3499755859375
42
0.99999999999999989
10
1606.0893323679643
20
1930.071413874334
10
1606.0893323679643
20
1916.3499755859377
10
1486.0893323679643
20
1916.3499755859377
10
1486.0893323679643
20
1930.071413874334
42
0.99999999999999989
10
1481.8107706563605
20
1934.3499755859375
10
1410.3678940795678
20
1934.3499755859375
42
0.99999999999999989
10
1406.0893323679643
20
1930.071413874334
10
1406.0893323679643
20
1916.3499755859377
10
1286.0893323679643
20
1916.3499755859377
10
1286.0893323679643
20
1930.0714138743342
42
0.99999999999999989
10
1281.8107706563603
20
1934.3499755859377
10
1210.367894079568
20
1934.3499755859375
42
0.99999999999999989
10
1206.0893323679643
20
1930.0714138743342
10
1206.0893323679643
20
1916.349975585938
10
1137.1204833984375
20
1916.3499755859377
10
1137.1204833984375
20
2006.3499755859377
10
1637.1204833984375
20
2006.3499755859377
42
0.99999999999999989
10
1637.1204833984375
20
2326.349975585937
10
1137.1204833984377
20
2326.349975585938
10
1137.1204833984375
20
2416.3499755859375
10
2137.1204833984375
20
2416.3499755859375
10
2137.120483398438
20
2345.1285372975412
42
0.99999999999999989
10
2141.3990451100408
20
2340.8499755859375
10
2149.120483398438
20
2340.8499755859375
10
2149.120483398438
20
2260.8499755859375
10
2141.3990451100412
20
2260.8499755859375
42
0.99999999999999989
10
2137.1204833984375
20
2256.5714138743342
10
2137.120483398438
20
2076.1285372975412
42
0.99999999999999989
10
2141.3990451100408
20
2071.849975585937
10
2149.1204833984375
20
2071.849975585937
10
2149.1204833984375
20
1991.8499755859373
10
2141.3990451100417
20
1991.849975585937
42
0.99999999999999989
10
2137.1204833984375
20
1987.5714138743338
10
2137.1204833984375
20
1916.3499755859375
10
2100.7131476265813
20
1916.3499755859375
0
LWPOLYLINE
5
108
100
AcDbEntity
8
0
100
AcDbPolyline
90
28
70
1
43
0.0
10
1710.3502709592019
20
2457.0715359446472
42
0.99999998709521587
10
1706.0717092926793
20
2461.3500977013323
10
1698.3502709592015
20
2461.35009765625
10
1698.3502709592017
20
2541.35009765625
10
1706.0717092475984
20
2541.35009765625
42
0.99999999999999989
10
1710.3502709592017
20
2545.6286593678537
10
1710.3502709592017
20
2576.35009765625
10
1759.2429028290567
20
2576.35009765625
10
1759.2429028290567
20
2562.6286593678537
42
0.99999999999999989
10
1763.5214645406604
20
2558.35009765625
10
1834.9643411174529
20
2558.3500976562505
42
0.99999999999999989
10
1839.2429028290567
20
2562.6286593678533
10
1839.2429028290567
20
2576.35009765625
10
2003.4576390893467
20
2576.35009765625
10
2003.4576390893469
20
2562.6286593678537
42
0.99999999999999989
10
2007.7362008009502
20
2558.35009765625
10
2079.1790773777429
20
2558.35009765625
42
0.99999999999999989
10
2083.4576390893467
20
2562.6286593678533
10
2083.4576390893467
20
2576.35009765625
10
2132.3502709592017
20
2576.35009765625
10
2132.3502709592017
20
2545.6286593678542
42
0.99999999999999989
10
2136.6288326708045
20
2541.35009765625
10
2144.3502709592012
20
2541.35009765625
10
2144.3502709592017
20
2461.35009765625
10
2136.6288326708054
20
2461.35009765625
42
0.99999999999999989
10
2132.3502709592017
20
2457.0715359446463
10
2132.3502709592012
20
2426.35009765625
10
1710.3502709592017
20
2426.35009765625
0
LWPOLYLINE
5
109
100
AcDbEntity
8
0
100
AcDbPolyline
90
64
70
1
43
0.0
10
1185.5279412406067
20
1420.0715359446465
42
0.99999999999999989
10
1181.2493795290029
20
1424.3500976562505
10
1149.12060546875
20
1424.3500976562498
10
1149.12060546875
20
1888.35009765625
10
1181.2493795290029
20
1888.3500976562502
42
0.99999999999999989
10
1185.5279412406067
20
1892.6286593678533
10
1185.5279412406067
20
1906.35009765625
10
1265.5279412406067
20
1906.35009765625
10
1265.5279412406067
20
1892.6286593678533
42
0.99999999999999989
10
1269.8065029522104
20
1888.35009765625
10
1395.8731947876197
20
1888.3500976562502
42
0.99999999999999989
10
1400.1517564992237
20
1892.6286593678535
10
1400.1517564992237
20
1906.35009765625
10
1480.1517564992237
20
1906.35009765625
10
1480.1517564992237
20
1892.6286593678535
42
0.99999999999999989
10
1484.4303182108272
20
1888.35009765625
10
1595.8731947876197
20
1888.3500976562502
42
0.99999999999999989
10
1600.1517564992237
20
1892.6286593678535
10
1600.1517564992237
20
1906.35009765625
10
1680.1517564992237
20
1906.35009765625
10
1680.1517564992237
20
1892.6286593678533
42
0.99999999999999989
10
1684.4303182108272
20
1888.35009765625
10
1795.8731947876199
20
1888.35009765625
42
0.99999999999999989
10
1800.1517564992237
20
1892.6286593678535
10
1800.1517564992237
20
1906.35009765625
10
1880.1517564992237
20
1906.35009765625
10
1880.1517564992237
20
1892.6286593678533
42
0.99999999999999989
10
1884.4303182108274
20
1888.35009765625
10
1995.8731947876199
20
1888.35009765625
42
0.99999999999999989
10
2000.1517564992237
20
1892.6286593678535
10
2000.1517564992237
20
1906.35009765625
10
2080.1517564992237
20
1906.35009765625
10
2080.1517564992237
20
1892.6286593678533
42
0.99999999999999989
10
2084.430318210827
20
1888.35009765625
10
2149.12060546875
20
1888.3500976562502
10
2149.12060546875
20
1424.35009765625
10
2084.430318210827
20
1424.35009765625
42
0.99999999999999989
10
2080.1517564992237
20
1420.0715359446465
10
2080.1517564992237
20
1406.35009765625
10
2000.1517564992237
20
1406.35009765625
10
2000.1517564992232
20
1420.0715359446463
42
0.99999999999999989
10
1995.8731947876197
20
1424.35009765625
10
1884.4303182108272
20
1424.35009765625
42
0.99999999999999989
10
1880.1517564992237
20
1420.0715359446465
10
1880.1517564992237
20
1406.35009765625
10
1800.1517564992237
20
1406.35009765625
10
1800.1517564992232
20
1420.0715359446463
42
0.99999999999999989
10
1795.8731947876197
20
1424.35009765625
10
1684.4303182108272
20
1424.35009765625
42
0.99999999999999989
10
1680.1517564992237
20
1420.0715359446465
10
1680.1517564992237
20
1406.35009765625
10
1600.1517564992237
20
1406.35009765625
10
1600.1517564992232
20
1420.0715359446463
42
0.99999999999999989
10
1595.8731947876199
20
1424.35009765625
10
1484.4303182108272
20
1424.35009765625
42
0.99999999999999989
10
1480.1517564992237
20
1420.0715359446465
10
1480.1517564992237
20
1406.35009765625
10
1400.1517564992237
20
1406.35009765625
10
1400.1517564992232
20
1420.0715359446463
42
0.99999999999999989
10
1395.8731947876197
20
1424.35009765625
10
1269.8065029522104
20
1424.3500976562498
42
0.99999999999999989
10
1265.5279412406067
20
1420.0715359446467
10
1265.5279412406067
20
1406.35009765625
10
1185.5279412406067
20
1406.35009765625
0
LWPOLYLINE
5
110
100
AcDbEntity
8
0
100
AcDbPolyline
90
8
70
1
43
0.0
10
1309.3991671803537
20
1812.85009765625
42
0.99999999999999989
10
1305.1206054687505
20
1808.5715359446463
10
1305.12060546875
20
1737.1286593678537
42
0.99999999999999989
10
1309.3991671803537
20
1732.85009765625
10
1318.8420437571463
20
1732.8500976562505
42
0.99999999999999989
10
1323.12060546875
20
1737.1286593678533
10
1323.12060546875
20
1808.5715359446465
42
0.99999999999999989
10
1318.8420437571463
20
1812.85009765625
0
LWPOLYLINE
5
111
100
AcDbEntity
8
0
100
AcDbPolyline
90
8
70
1
43
0.0
10
1305.12060546875
20
1504.1286593678535
42
0.99999999999999989
10
1309.399167180354
20
1499.8500976562502
10
1318.842043757146
20
1499.8500976562502
42
0.99999999999999989
10
1323.12060546875
20
1504.1286593678533
10
1323.1206054687502
20
1575.5715359446467
42
0.99999999999999989
10
1318.8420437571463
20
1579.85009765625
10
1309.3991671803537
20
1579.85009765625
42
0.99999999999999989
10
1305.12060546875
20
1575.5715359446463
0
ARC
5
112
100
AcDbEntity
8
0
100
AcDbCircle
10
1672.9162948799342
20
1758.058090887364
30
0
40
3.0254000000000096
210
-0
220
0
230
1
100
AcDbArc
50
-40.896922387450175
51
78.232567970302227
0
SPLINE
5
113
100
AcDbEntity
8
0
100
AcDbSpline
70
0
71
3
72
8
73
4
74
0
42
0.000000001
43
0.0000000001
44
0.0000000001
40
0.23735871717746684
40
0.23735871717746684
40
0.23735871717746684
40
0.23735871717746684
40
0.30769230769230771
40
0.30769230769230771
40
0.30769230769230771
40
0.30769230769230771
10
1675.2031603627202
20
1756.0773608644579
30
0
10
1673.3029964894797
20
1746.3341895038561
30
0
10
1672.8642220723693
20
1744.6319821767963
30
0
10
1672.1821463848812
20
1733.0399732669421
30
0
0
SPLINE
5
114
100
AcDbEntity
8
0
100
AcDbSpline
70
0
71
3
72
8
73
4
74
0
42
0.000000001
43
0.0000000001
44
0.0000000001
40
0.30769230769230771
40
0.30769230769230771
40
0.30769230769230771
40
0.30769230769230771
40
0.38461538461538458
40
0.38461538461538458
40
0.38461538461538458
40
0.38461538461538458
10
1672.1821463848812
20
1733.0399732669421
30
0
10
1670.7674266179897
20
1708.992670304629
30
0
10
1671.7464218218004
20
1684.0980346093247
30
0
10
1676.0384880116101
20
1660.3763029548036
30
0
0
SPLINE
5
115
100
AcDbEntity
8
0
100
AcDbSpline
70
0
71
3
72
8
73
4
74
0
42
0.000000001
43
0.0000000001
44
0.0000000001
40
0.38461538461538458
40
0.38461538461538458
40
0.38461538461538458
40
0.38461538461538458
40
0.46153846153846162
40
0.46153846153846162
40
0.46153846153846162
40
0.46153846153846162
10
1676.0384880116101
20
1660.3763029548036
30
0
10
1676.8353066778275
20
1655.9731058180905
30
0
10
1678.6283930997206
20
1646.3571828874512
30
0
10
1679.958705490518
20
1642.259677329025
30
0
0
SPLINE
5
116
100
AcDbEntity
8
0
100
AcDbSpline
70
0
71
3
72
8
73
4
74
0
42
0.000000001
43
0.0000000001
44
0.0000000001
40
0.46153846153846162
40
0.46153846153846162
40
0.46153846153846162
40
0.46153846153846162
40
0.53846153846153855
40
0.53846153846153855
40
0.53846153846153855
40
0.53846153846153855
10
1679.958705490518
20
1642.259677329025
30
0
10
1680.2881875647699
20
1641.2448334326643
30
0
10
1682.5016813811089
20
1633.4021171944137
30
0
10
1681.0237375564479
20
1632.9882277440674
30
0
0
SPLINE
5
117
100
AcDbEntity
8
0
100
AcDbSpline
70
0
71
3
72
11
73
7
74
0
42
0.000000001
43
0.0000000001
44
0.0000000001
40
0.53846153846153855
40
0.53846153846153855
40
0.53846153846153855
40
0.53846153846153855
40
0.61538461538461542
40
0.61538461538461542
40
0.61538461538461542
40
0.69230769230769229
40
0.69230769230769229
40
0.69230769230769229
40
0.69230769230769229
10
1681.0237375564479
20
1632.9882277440674
30
0
10
1679.3649207830135
20
1632.523824226947
30
0
10
1670.9082142105485
20
1646.1495863678681
30
0
10
1670.0077602331419
20
1647.4671887676707
30
0
10
1657.3965160913758
20
1665.9207921034163
30
0
10
1639.941135894536
20
1690.6325994667177
30
0
10
1622.7569021722536
20
1704.7159212834547
30
0
0
SPLINE
5
118
100
AcDbEntity
8
0
100
AcDbSpline
70
0
71
3
72
8
73
4
74
0
42
0.000000001
43
0.0000000001
44
0.0000000001
40
0.69230769230769229
40
0.69230769230769229
40
0.69230769230769229
40
0.69230769230769229
40
0.76422892436040535
40
0.76422892436040535
40
0.76422892436040535
40
0.76422892436040535
10
1622.7569021722536
20
1704.7159212834547
30
0
10
1611.1217008672752
20
1714.2510883500172
30
0
10
1603.91572898308
20
1718.9066103712864
30
0
10
1592.0270700090487
20
1726.7611623896669
30
0
0
ARC
5
119
100
AcDbEntity
8
0
100
AcDbCircle
10
1592.1915209452645
20
1729.7820895734264
30
0
40
3.0254000000000483
210
0
220
0
230
1
100
AcDbArc
50
145.57584453146623
51
266.88405145480806
0
SPLINE
5
120
100
AcDbEntity
8
0
100
AcDbSpline
70
0
71
3
72
8
73
4
74
0
42
0.000000001
43
0.0000000001
44
0.0000000001
40
0.77295301891318868
40
0.77295301891318868
40
0.77295301891318868
40
0.77295301891318868
40
0.84615384615384626
40
0.84615384615384626
40
0.84615384615384626
40
0.84615384615384626
10
1589.6959433968016
20
1731.4923930142252
30
0
10
1591.0999048322415
20
1751.0283773445112
30
0
10
1591.8358918841177
20
1762.6871744287714
30
0
10
1599.2085478307911
20
1781.8694773888355
30
0
0
SPLINE
5
121
100
AcDbEntity
8
0
100
AcDbSpline
70
0
71
3
72
8
73
4
74
0
42
0.000000001
43
0.0000000001
44
0.0000000001
40
0.84615384615384626
40
0.84615384615384626
40
0.84615384615384626
40
0.84615384615384626
40
0.92307692307692324
40
0.92307692307692324
40
0.92307692307692324
40
0.92307692307692324
10
1599.2085478307911
20
1781.8694773888355
30
0
10
1601.0671395908885
20
1786.7054660137846
30
0
10
1603.359826428042
20
1792.9754023407208
30
0
10
1607.526748091132
20
1796.2816294854144
30
0
0
ELLIPSE
5
122
100
AcDbEntity
8
0
100
AcDbEllipse
10
1608.629541068296
20
1794.8989694978832
30
0
11
-1.6022898183444272
21
-0.77836249887396058
31
0.0
40
0.99248202339284319
41
4.2138114715150152
42
4.9318404353620169
0
SPLINE
5
123
100
AcDbEntity
8
0
100
AcDbSpline
70
0
71
3
72
8
73
4
74
0
42
0.000000001
43
0.0000000001
44
0.0000000001
40
0
40
0
40
0
40
0
40
0.0769230769230769
40
0.0769230769230769
40
0.0769230769230769
40
0.0769230769230769
10
1608.717250580986
20
1796.6678176733355
30
0
10
1611.6741159219232
20
1796.542999043822
30
0
10
1625.9200604439536
20
1791.1331054408731
30
0
10
1629.0079364612996
20
1789.7946456199506
30
0
0
SPLINE
5
124
100
AcDbEntity
8
0
100
AcDbSpline
70
0
71
3
72
8
73
4
74
0
42
0.000000001
43
0.0000000001
44
0.0000000001
40
0.0769230769230769
40
0.0769230769230769
40
0.0769230769230769
40
0.0769230769230769
40
0.15384615384615391
40
0.15384615384615391
40
0.15384615384615391
40
0.15384615384615391
10
1629.0079364612996
20
1789.7946456199506
30
0
10
1642.5805773578059
20
1783.9108974809365
30
0
10
1651.1138697734452
20
1779.0866411553668
30
0
10
1662.8601827331495
20
1770.1032846996268
30
0
0
SPLINE
5
125
100
AcDbEntity
8
0
100
AcDbSpline
70
0
71
3
72
8
73
4
74
0
42
0.000000001
43
0.0000000001
44
0.0000000001
40
0.15384615384615391
40
0.15384615384615391
40
0.15384615384615391
40
0.15384615384615391
40
0.21658475732399418
40
0.21658475732399418
40
0.21658475732399418
40
0.21658475732399418
10
1662.8601827331495
20
1770.1032846996268
30
0
10
1666.1218435141211
20
1767.6087295346508
30
0
10
1670.0869842648872
20
1764.071419776544
30
0
10
1673.5332937841551
20
1761.0199074772615
30
0
0
ARC
5
126
100
AcDbEntity
8
0
100
AcDbCircle
10
2045.7285467422187
20
1542.0515546972324
30
0
40
3.0254000000002366
210
0
220
0
230
1
100
AcDbArc
50
235.51951195803602
51
344.94922636283479
0
SPLINE
5
127
100
AcDbEntity
8
0
100
AcDbSpline
70
0
71
3
72
8
73
4
74
0
42
0.000000001
43
0.0000000001
44
0.0000000001
40
0.3867659066242905
40
0.3867659066242905
40
0.3867659066242905
40
0.3867659066242905
40
0.46153846153846162
40
0.46153846153846162
40
0.46153846153846162
40
0.46153846153846162
10
2044.0157905043602
20
1539.5576599060146
30
0
10
2012.4332116396115
20
1543.4399836929351
30
0
10
1999.6046867897312
20
1545.3224517390913
30
0
10
1966.9186901260209
20
1540.8098327967136
30
0
0
SPLINE
5
128
100
AcDbEntity
8
0
100
AcDbSpline
70
0
71
3
72
8
73
4
74
0
42
0.000000001
43
0.0000000001
44
0.0000000001
40
0.46153846153846162
40
0.46153846153846162
40
0.46153846153846162
40
0.46153846153846162
40
0.53846153846153855
40
0.53846153846153855
40
0.53846153846153855
40
0.53846153846153855
10
1966.9186901260209
20
1540.8098327967136
30
0
10
1952.5814943865917
20
1538.8303331735622
30
0
10
1940.2449815886382
20
1536.2867054885612
30
0
10
1926.2037005113459
20
1533.1994812656258
30
0
0
SPLINE
5
129
100
AcDbEntity
8
0
100
AcDbSpline
70
0
71
3
72
8
73
4
74
0
42
0.000000001
43
0.0000000001
44
0.0000000001
40
0.53846153846153855
40
0.53846153846153855
40
0.53846153846153855
40
0.53846153846153855
40
0.61538461538461542
40
0.61538461538461542
40
0.61538461538461542
40
0.61538461538461542
10
1926.2037005113459
20
1533.1994812656258
30
0
10
1925.1986335311353
20
1532.9785229606375
30
0
10
1919.2604605588863
20
1531.1052658263154
30
0
10
1919.6437156719628
20
1532.3358536723836
30
0
0
SPLINE
5
130
100
AcDbEntity
8
0
100
AcDbSpline
70
0
71
3
72
8
73
4
74
0
42
0.000000001
43
0.0000000001
44
0.0000000001
40
0.61538461538461542
40
0.61538461538461542
40
0.61538461538461542
40
0.61538461538461542
40
0.69230769230769229
40
0.69230769230769229
40
0.69230769230769229
40
0.69230769230769229
10
1919.6437156719628
20
1532.3358536723836
30
0
10
1920.045546925724
20
1533.6260807069664
30
0
10
1926.2529109893001
20
1537.4746008007751
30
0
10
1927.6145095117774
20
1538.4030819378113
30
0
0
SPLINE
5
131
100
AcDbEntity
8
0
100
AcDbSpline
70
0
71
3
72
8
73
4
74
0
42
0.000000001
43
0.0000000001
44
0.0000000001
40
0.69230769230769229
40
0.69230769230769229
40
0.69230769230769229
40
0.69230769230769229
40
0.76923076923076927
40
0.76923076923076927
40
0.76923076923076927
40
0.76923076923076927
10
1927.6145095117774
20
1538.4030819378113
30
0
10
1935.4986146950632
20
1543.7781045398256
30
0
10
1944.7795152989652
20
1549.5585432648559
30
0
10
1952.1728192915252
20
1555.0880411420385
30
0
0
SPLINE
5
132
100
AcDbEntity
8
0
100
AcDbSpline
70
0
71
3
72
8
73
4
74
0
42
0.000000001
43
0.0000000001
44
0.0000000001
40
0.76923076923076927
40
0.76923076923076927
40
0.76923076923076927
40
0.76923076923076927
40
0.84615384615384626
40
0.84615384615384626
40
0.84615384615384626
40
0.84615384615384626
10
1952.1728192915252
20
1555.0880411420385
30
0
10
1973.7139727474118
20
1571.1977917794466
30
0
10
1988.17957198561
20
1584.8365898085674
30
0
10
2004.9593672764918
20
1605.7774406128497
30
0
0
SPLINE
5
133
100
AcDbEntity
8
0
100
AcDbSpline
70
0
71
3
72
8
73
4
74
0
42
0.000000001
43
0.0000000001
44
0.0000000001
40
0.84615384615384626
40
0.84615384615384626
40
0.84615384615384626
40
0.84615384615384626
40
0.92307692307692324
40
0.92307692307692324
40
0.92307692307692324
40
0.92307692307692324
10
2004.9593672764918
20
1605.7774406128497
30
0
10
2008.9447641963991
20
1610.7512837555125
30
0
10
2012.7157207554185
20
1616.7086846628563
30
0
10
2016.5127490908376
20
1622.0270011512011
30
0
0
SPLINE
5
134
100
AcDbEntity
8
0
100
AcDbSpline
70
0
71
3
72
8
73
4
74
0
42
0.000000001
43
0.0000000001
44
0.0000000001
40
0.92307692307692324
40
0.92307692307692324
40
0.92307692307692324
40
0.92307692307692324
40
1
40
1
40
1
40
1
10
2016.5127490908376
20
1622.0270011512011
30
0
10
2019.8691644051007
20
1626.7277424360768
30
0
10
2022.7142470047238
20
1627.4378724457647
30
0
10
2028.3294558468208
20
1627.331629956936
30
0
0
SPLINE
5
135
100
AcDbEntity
8
0
100
AcDbSpline
70
0
71
3
72
8
73
4
74
0
42
0.000000001
43
0.0000000001
44
0.0000000001
40
0
40
0
40
0
40
0
40
0.0769230769230769
40
0.0769230769230769
40
0.0769230769230769
40
0.0769230769230769
10
2028.3294558468208
20
1627.331629956936
30
0
10
2036.2644009940857
20
1627.1794359622024
30
0
10
2053.381825789344
20
1622.8844366975479
30
0
10
2061.2779891692144
20
1620.5040835122506
30
0
0
SPLINE
5
136
100
AcDbEntity
8
0
100
AcDbSpline
70
0
71
3
72
8
73
4
74
0
42
0.000000001
43
0.0000000001
44
0.0000000001
40
0.0769230769230769
40
0.0769230769230769
40
0.0769230769230769
40
0.0769230769230769
40
0.15384615384615391
40
0.15384615384615391
40
0.15384615384615391
40
0.15384615384615391
10
2061.2779891692144
20
1620.5040835122506
30
0
10
2065.9992619780051
20
1619.080890418029
30
0
10
2082.8817148884605
20
1614.0448009092115
30
0
10
2085.6505375421143
20
1609.8857007790409
30
0
0
SPLINE
5
137
100
AcDbEntity
8
0
100
AcDbSpline
70
0
71
3
72
8
73
4
74
0
42
0.000000001
43
0.0000000001
44
0.0000000001
40
0.15384615384615391
40
0.15384615384615391
40
0.15384615384615391
40
0.15384615384615391
40
0.23076923076923081
40
0.23076923076923081
40
0.23076923076923081
40
0.23076923076923081
10
2085.6505375421143
20
1609.8857007790409
30
0
10
2087.9125900419976
20
1606.488222416948
30
0
10
2083.752838117417
20
1597.4830308484729
30
0
10
2082.4384946896644
20
1594.3377969230478
30
0
0
SPLINE
5
138
100
AcDbEntity
8
0
100
AcDbSpline
70
0
71
3
72
8
73
4
74
0
42
0.000000001
43
0.0000000001
44
0.0000000001
40
0.23076923076923081
40
0.23076923076923081
40
0.23076923076923081
40
0.23076923076923081
40
0.30769230769230771
40
0.30769230769230771
40
0.30769230769230771
40
0.30769230769230771
10
2082.4384946896644
20
1594.3377969230478
30
0
10
2076.4263430518813
20
1579.9487835280238
30
0
10
2070.2958907286843
20
1568.4413532195824
30
0
10
2061.137201576656
20
1555.7180004392978
30
0
0
SPLINE
5
139
100
AcDbEntity
8
0
100
AcDbSpline
70
0
71
3
72
8
73
4
74
0
42
0.000000001
43
0.0000000001
44
0.0000000001
40
0.30769230769230771
40
0.30769230769230771
40
0.30769230769230771
40
0.30769230769230771
40
0.37384903902452471
40
0.37384903902452471
40
0.37384903902452471
40
0.37384903902452471
10
2061.137201576656
20
1555.7180004392978
30
0
10
2058.1788058583743
20
1551.6079185053441
30
0
10
2052.7230845074396
20
1545.7219873497922
30
0
10
2048.6501636932639
20
1541.2659342091044
30
0
0
ARC
5
140
100
AcDbEntity
8
0
100
AcDbCircle
10
1827.9017538269761
20
1766.1566587033449
30
0
40
3.0253999999998116
210
0
220
0
230
1
100
AcDbArc
50
109.14311582174703
51
218.220614057061
0
SPLINE
5
141
100
AcDbEntity
8
0
100
AcDbSpline
70
0
71
3
72
8
73
4
74
0
42
0.000000001
43
0.0000000001
44
0.0000000001
40
0.77802590932767379
40
0.77802590932767379
40
0.77802590932767379
40
0.77802590932767379
40
0.84615384615384626
40
0.84615384615384626
40
0.84615384615384626
40
0.84615384615384626
10
1826.9096377551489
20
1769.0147613712033
30
0
10
1831.2819665734432
20
1773.6161825657098
30
0
10
1831.7762975789451
20
1774.2226954229814
30
0
10
1838.3802699143657
20
1778.8252715969593
30
0
0
SPLINE
5
142
100
AcDbEntity
8
0
100
AcDbSpline
70
0
71
3
72
8
73
4
74
0
42
0.000000001
43
0.0000000001
44
0.0000000001
40
0.84615384615384626
40
0.84615384615384626
40
0.84615384615384626
40
0.84615384615384626
40
0.92307692307692324
40
0.92307692307692324
40
0.92307692307692324
40
0.92307692307692324
10
1838.3802699143657
20
1778.8252715969593
30
0
10
1847.903312141581
20
1785.4618422795168
30
0
10
1859.2350838565287
20
1791.8585526191962
30
0
10
1869.6918215760597
20
1796.943852605968
30
0
0
SPLINE
5
143
100
AcDbEntity
8
0
100
AcDbSpline
70
0
71
3
72
8
73
4
74
0
42
0.000000001
43
0.0000000001
44
0.0000000001
40
0.92307692307692324
40
0.92307692307692324
40
0.92307692307692324
40
0.92307692307692324
40
1
40
1
40
1
40
1
10
1869.6918215760597
20
1796.943852605968
30
0
10
1872.4482601359239
20
1798.2842678101201
30
0
10
1878.9124311970377
20
1800.3338353323461
30
0
10
1882.4761171336791
20
1801.7795153337124
30
0
0
SPLINE
5
144
100
AcDbEntity
8
0
100
AcDbSpline
70
0
71
3
72
8
73
4
74
0
42
0.000000001
43
0.0000000001
44
0.0000000001
40
0
40
0
40
0
40
0
40
0.0769230769230769
40
0.0769230769230769
40
0.0769230769230769
40
0.0769230769230769
10
1882.4761171336791
20
1801.7795153337124
30
0
10
1887.8188759123987
20
1803.9470576441472
30
0
10
1893.595403870969
20
1788.918633932919
30
0
10
1894.9371226639414
20
1785.7368995205341
30
0
0
SPLINE
5
145
100
AcDbEntity
8
0
100
AcDbSpline
70
0
71
3
72
8
73
4
74
0
42
0.000000001
43
0.0000000001
44
0.0000000001
40
0.0769230769230769
40
0.0769230769230769
40
0.0769230769230769
40
0.0769230769230769
40
0.15384615384615391
40
0.15384615384615391
40
0.15384615384615391
40
0.15384615384615391
10
1894.9371226639414
20
1785.7368995205341
30
0
10
1900.4816118125539
20
1772.5895544765485
30
0
10
1903.2390280640329
20
1762.8644559822351
30
0
10
1905.2752338008536
20
1748.6276365819447
30
0
0
SPLINE
5
146
100
AcDbEntity
8
0
100
AcDbSpline
70
0
71
3
72
8
73
4
74
0
42
0.000000001
43
0.0000000001
44
0.0000000001
40
0.15384615384615391
40
0.15384615384615391
40
0.15384615384615391
40
0.15384615384615391
40
0.22022269251144744
40
0.22022269251144744
40
0.22022269251144744
40
0.22022269251144744
10
1905.2752338008536
20
1748.6276365819447
30
0
10
1906.1309712575521
20
1742.6450671919326
30
0
10
1906.5773428493264
20
1734.2524078372312
30
0
10
1906.99145871615
20
1727.4665829627393
30
0
0
ARC
5
147
100
AcDbEntity
8
0
100
AcDbCircle
10
1904.4976185086296
20
1725.7537472498484
30
0
40
3.0253999999996823
210
0
220
0
230
1
100
AcDbArc
50
-89.58311334298125
51
34.482313954389589
0
SPLINE
5
148
100
AcDbEntity
8
0
100
AcDbSpline
70
0
71
3
72
8
73
4
74
0
42
0.000000001
43
0.0000000001
44
0.0000000001
40
0.23781372798524442
40
0.23781372798524442
40
0.23781372798524442
40
0.23781372798524442
40
0.30769230769230771
40
0.30769230769230771
40
0.30769230769230771
40
0.30769230769230771
10
1904.5196312602545
20
1722.7284273330852
30
0
10
1896.4585449758169
20
1717.791099346286
30
0
10
1895.4611836585491
20
1717.3291552958779
30
0
10
1886.8815955508273
20
1709.8973609457007
30
0
0
SPLINE
5
149
100
AcDbEntity
8
0
100
AcDbSpline
70
0
71
3
72
8
73
4
74
0
42
0.000000001
43
0.0000000001
44
0.0000000001
40
0.30769230769230771
40
0.30769230769230771
40
0.30769230769230771
40
0.30769230769230771
40
0.38461538461538458
40
0.38461538461538458
40
0.38461538461538458
40
0.38461538461538458
10
1886.8815955508273
20
1709.8973609457007
30
0
10
1873.9861690463044
20
1698.7275601416363
30
0
10
1861.9019006850185
20
1686.2271210495694
30
0
10
1850.8689767070528
20
1673.230340514292
30
0
0
SPLINE
5
150
100
AcDbEntity
8
0
100
AcDbSpline
70
0
71
3
72
8
73
4
74
0
42
0.000000001
43
0.0000000001
44
0.0000000001
40
0.38461538461538458
40
0.38461538461538458
40
0.38461538461538458
40
0.38461538461538458
40
0.46153846153846162
40
0.46153846153846162
40
0.46153846153846162
40
0.46153846153846162
10
1850.8689767070528
20
1673.230340514292
30
0
10
1843.7318279176202
20
1664.8228444197819
30
0
10
1830.6825779323385
20
1644.1736716139717
30
0
10
1824.1398656448205
20
1634.2510794134305
30
0
0
SPLINE
5
151
100
AcDbEntity
8
0
100
AcDbSpline
70
0
71
3
72
8
73
4
74
0
42
0.000000001
43
0.0000000001
44
0.0000000001
40
0.46153846153846162
40
0.46153846153846162
40
0.46153846153846162
40
0.46153846153846162
40
0.53846153846153855
40
0.53846153846153855
40
0.53846153846153855
40
0.53846153846153855
10
1824.1398656448205
20
1634.2510794134305
30
0
10
1819.6933241798424
20
1627.5082662420441
30
0
10
1822.1753572930991
20
1637.3663307959962
30
0
10
1822.60391211767
20
1639.7241970741488
30
0
0
SPLINE
5
152
100
AcDbEntity
8
0
100
AcDbSpline
70
0
71
3
72
11
73
7
74
0
42
0.000000001
43
0.0000000001
44
0.0000000001
40
0.53846153846153855
40
0.53846153846153855
40
0.53846153846153855
40
0.53846153846153855
40
0.61538461538461542
40
0.61538461538461542
40
0.61538461538461542
40
0.69230769230769229
40
0.69230769230769229
40
0.69230769230769229
40
0.69230769230769229
10
1822.60391211767
20
1639.7241970741488
30
0
10
1827.35712285255
20
1665.8803808499965
30
0
10
1831.1000522519396
20
1683.7881063673722
30
0
10
1831.1000522519396
20
1711.1797664473636
30
0
10
1831.1000522519396
20
1721.9744595684765
30
0
10
1830.0643509344593
20
1740.6278378908855
30
0
10
1828.0506321047835
20
1751.1220537889913
30
0
0
LINE
5
153
100
AcDbEntity
8
0
100
AcDbLine
10
1828.0506321047835
20
1751.1220537889908
30
0
11
1825.5248956663424
21
1764.2848706693442
31
0
0
ARC
5
154
100
AcDbEntity
8
0
100
AcDbCircle
10
1401.3337729893469
20
1464.4831645342153
30
0
40
3.0253999999997583
210
0
220
-0
230
1
100
AcDbArc
50
72.21249828035667
51
295.83487600998478
0
SPLINE
5
155
100
AcDbEntity
8
0
100
AcDbSpline
70
0
71
3
72
8
73
4
74
0
42
0.000000001
43
0.0000000001
44
0.0000000001
40
0.86228980989967918
40
0.86228980989967918
40
0.86228980989967918
40
0.86228980989967918
40
0.92857142857142838
40
0.92857142857142838
40
0.92857142857142838
40
0.92857142857142838
10
1402.2579951860598
20
1467.3639384738194
30
0
10
1412.3184384121862
20
1478.9907203706389
30
0
10
1429.4161247749296
20
1494.0112351413186
30
0
10
1441.6082443635355
20
1500.6537568886079
30
0
0
SPLINE
5
156
100
AcDbEntity
8
0
100
AcDbSpline
70
0
71
3
72
8
73
4
74
0
42
0.000000001
43
0.0000000001
44
0.0000000001
40
0.92857142857142838
40
0.92857142857142838
40
0.92857142857142838
40
0.92857142857142838
40
1
40
1
40
1
40
1
10
1441.6082443635355
20
1500.6537568886079
30
0
10
1464.0221505344034
20
1512.8647992626379
30
0
10
1475.1515400850485
20
1514.0781145568412
30
0
10
1500.7706452670614
20
1514.6425685158961
30
0
0
SPLINE
5
157
100
AcDbEntity
8
0
100
AcDbSpline
70
0
71
3
72
8
73
4
74
0
42
0.000000001
43
0.0000000001
44
0.0000000001
40
0
40
0
40
0
40
0
40
0.071428571428571397
40
0.071428571428571397
40
0.071428571428571397
40
0.071428571428571397
10
1500.7706452670614
20
1514.6425685158961
30
0
10
1523.0773312574854
20
1515.1340215010314
30
0
10
1528.7140493151123
20
1514.8746073258535
30
0
10
1550.2516179017437
20
1509.2470143899668
30
0
0
SPLINE
5
158
100
AcDbEntity
8
0
100
AcDbSpline
70
0
71
3
72
8
73
4
74
0
42
0.000000001
43
0.0000000001
44
0.0000000001
40
0.071428571428571397
40
0.071428571428571397
40
0.071428571428571397
40
0.071428571428571397
40
0.14285714285714279
40
0.14285714285714279
40
0.14285714285714279
40
0.14285714285714279
10
1550.2516179017437
20
1509.2470143899668
30
0
10
1563.463490592319
20
1505.7951111946395
30
0
10
1582.507293766314
20
1499.6640070770327
30
0
10
1595.2498744816933
20
1494.7618613194686
30
0
0
SPLINE
5
159
100
AcDbEntity
8
0
100
AcDbSpline
70
0
71
3
72
8
73
4
74
0
42
0.000000001
43
0.0000000001
44
0.0000000001
40
0.14285714285714279
40
0.14285714285714279
40
0.14285714285714279
40
0.14285714285714279
40
0.2142857142857143
40
0.2142857142857143
40
0.2142857142857143
40
0.2142857142857143
10
1595.2498744816933
20
1494.7618613194686
30
0
10
1614.6508609923649
20
1487.2984894278343
30
0
10
1639.1322590317338
20
1478.7345626749252
30
0
10
1658.9705995915115
20
1472.4467020017146
30
0
0
SPLINE
5
160
100
AcDbEntity
8
0
100
AcDbSpline
70
0
71
3
72
8
73
4
74
0
42
0.000000001
43
0.0000000001
44
0.0000000001
40
0.2142857142857143
40
0.2142857142857143
40
0.2142857142857143
40
0.2142857142857143
40
0.2857142857142857
40
0.2857142857142857
40
0.2857142857142857
40
0.2857142857142857
10
1658.9705995915115
20
1472.4467020017146
30
0
10
1664.5633215264634
20
1470.6738212065316
30
0
10
1679.4428102150077
20
1465.9789460713457
30
0
10
1684.8553109955969
20
1465.1146666836939
30
0
0
LINE
5
161
100
AcDbEntity
8
0
100
AcDbLine
10
1684.8553109955967
20
1465.1146666836942
30
0
11
1402.6521789085455
21
1461.7601421339734
31
0
0
ARC
5
162
100
AcDbEntity
8
0
100
AcDbCircle
10
1998.6473939609059
20
1710.8555069777619
30
0
40
3.0254000000000532
210
0
220
0
230
1
100
AcDbArc
50
-31.597608783277924
51
130.84839247004663
0
SPLINE
5
163
100
AcDbEntity
8
0
100
AcDbSpline
70
0
71
3
72
8
73
4
74
0
42
0.000000001
43
0.0000000001
44
0.0000000001
40
0.07158783396798668
40
0.07158783396798668
40
0.07158783396798668
40
0.07158783396798668
40
0.125
40
0.125
40
0.125
40
0.125
10
2001.2242747857081
20
1709.2703475615626
30
0
10
2002.302331510273
20
1702.5096022731216
30
0
10
2002.7191863706801
20
1700.1145396319675
30
0
10
2002.4972138927401
20
1691.5294685748695
30
0
0
SPLINE
5
164
100
AcDbEntity
8
0
100
AcDbSpline
70
0
71
3
72
8
73
4
74
0
42
0.000000001
43
0.0000000001
44
0.0000000001
40
0.125
40
0.125
40
0.125
40
0.125
40
0.1875
40
0.1875
40
0.1875
40
0.1875
10
2002.4972138927401
20
1691.5294685748695
30
0
10
2002.1116774992286
20
1676.6203232406701
30
0
10
1998.7875260082596
20
1655.1010048975184
30
0
10
1992.7623384822773
20
1641.4739391677772
30
0
0
SPLINE
5
165
100
AcDbEntity
8
0
100
AcDbSpline
70
0
71
3
72
11
73
7
74
0
42
0.000000001
43
0.0000000001
44
0.0000000001
40
0.1875
40
0.1875
40
0.1875
40
0.1875
40
0.25
40
0.25
40
0.25
40
0.3125
40
0.3125
40
0.3125
40
0.3125
10
1992.7623384822773
20
1641.4739391677772
30
0
10
1985.4775582589807
20
1624.9988577635679
30
0
10
1979.7231913103501
20
1617.3950241765801
30
0
10
1967.2801101263626
20
1604.2102009540195
30
0
10
1954.6623480404969
20
1590.8402681190207
30
0
10
1937.2304324424167
20
1577.2969579709638
30
0
10
1920.8593122466016
20
1568.8744706050234
30
0
0
SPLINE
5
166
100
AcDbEntity
8
0
100
AcDbSpline
70
0
71
3
72
8
73
4
74
0
42
0.000000001
43
0.0000000001
44
0.0000000001
40
0.3125
40
0.3125
40
0.3125
40
0.3125
40
0.375
40
0.375
40
0.375
40
0.375
10
1920.8593122466016
20
1568.8744706050234
30
0
10
1903.0812938168147
20
1559.7284914439899
30
0
10
1885.0044276500448
20
1550.9700040596977
30
0
10
1866.8467389764369
20
1542.6006379381715
30
0
0
SPLINE
5
167
100
AcDbEntity
8
0
100
AcDbSpline
70
0
71
3
72
8
73
4
74
0
42
0.000000001
43
0.0000000001
44
0.0000000001
40
0.375
40
0.375
40
0.375
40
0.375
40
0.4375
40
0.4375
40
0.4375
40
0.4375
10
1866.8467389764369
20
1542.6006379381715
30
0
10
1854.6702417061369
20
1536.9883621709198
30
0
10
1817.9670466849736
20
1519.6959305765781
30
0
10
1807.7918841505602
20
1512.9844035368717
30
0
0
LINE
5
168
100
AcDbEntity
8
0
100
AcDbLine
10
1807.7918841505602
20
1512.9844035368717
30
0
11
1795.6388514790201
21
1505.5568803377869
31
0
0
SPLINE
5
169
100
AcDbEntity
8
0
100
AcDbSpline
70
0
71
3
72
8
73
4
74
0
42
0.000000001
43
0.0000000001
44
0.0000000001
40
0.5
40
0.5
40
0.5
40
0.5
40
0.5625
40
0.5625
40
0.5625
40
0.5625
10
1795.6388514790196
20
1505.5568803377867
30
0
10
1795.271891226193
20
1505.3496097154086
30
0
10
1794.8628902339219
20
1505.7576330160648
30
0
10
1795.0642947066103
20
1506.1275263437365
30
0
0
LINE
5
170
100
AcDbEntity
8
0
100
AcDbLine
10
1795.0642947066103
20
1506.1275263437365
30
0
11
1802.3021457323871
21
1518.4148286637353
31
0
0
SPLINE
5
171
100
AcDbEntity
8
0
100
AcDbSpline
70
0
71
3
72
8
73
4
74
0
42
0.000000001
43
0.0000000001
44
0.0000000001
40
0.625
40
0.625
40
0.625
40
0.625
40
0.6875
40
0.6875
40
0.6875
40
0.6875
10
1802.3021457323871
20
1518.4148286637353
30
0
10
1811.6257388701433
20
1533.0678187948067
30
0
10
1824.2454563392394
20
1561.4762781543882
30
0
10
1831.9242462833768
20
1577.8988901085929
30
0
0
SPLINE
5
172
100
AcDbEntity
8
0
100
AcDbSpline
70
0
71
3
72
8
73
4
74
0
42
0.000000001
43
0.0000000001
44
0.0000000001
40
0.6875
40
0.6875
40
0.6875
40
0.6875
40
0.75
40
0.75
40
0.75
40
0.75
10
1831.9242462833768
20
1577.8988901085929
30
0
10
1842.5077580156517
20
1600.5337545844491
30
0
10
1855.0319876036835
20
1628.169511670983
30
0
10
1869.2169893483792
20
1648.5703508065853
30
0
0
SPLINE
5
173
100
AcDbEntity
8
0
100
AcDbSpline
70
0
71
3
72
8
73
4
74
0
42
0.000000001
43
0.0000000001
44
0.0000000001
40
0.75
40
0.75
40
0.75
40
0.75
40
0.8125
40
0.8125
40
0.8125
40
0.8125
10
1869.2169893483792
20
1648.5703508065853
30
0
10
1879.5762838036167
20
1663.4693933274295
30
0
10
1885.8351396255825
20
1671.459740999544
30
0
10
1899.5844168071974
20
1683.4384186664106
30
0
0
SPLINE
5
174
100
AcDbEntity
8
0
100
AcDbSpline
70
0
71
3
72
8
73
4
74
0
42
0.000000001
43
0.0000000001
44
0.0000000001
40
0.8125
40
0.8125
40
0.8125
40
0.8125
40
0.875
40
0.875
40
0.875
40
0.875
10
1899.5844168071974
20
1683.4384186664106
30
0
10
1908.8363125598551
20
1691.4985083403944
30
0
10
1922.6481620048296
20
1700.2439598364867
30
0
10
1934.2165350906048
20
1704.4415158368472
30
0
0
SPLINE
5
175
100
AcDbEntity
8
0
100
AcDbSpline
70
0
71
3
72
8
73
4
74
0
42
0.000000001
43
0.0000000001
44
0.0000000001
40
0.875
40
0.875
40
0.875
40
0.875
40
0.9375
40
0.9375
40
0.9375
40
0.9375
10
1934.2165350906048
20
1704.4415158368472
30
0
10
1950.0303710658754
20
1710.1795879252279
30
0
10
1959.6345616971348
20
1711.9371515517764
30
0
10
1976.4844248870907
20
1712.8985483065173
30
0
0
ARC
5
176
100
AcDbEntity
8
0
100
AcDbCircle
10
1984.1483036015538
20
1578.6917834548215
30
0
40
134.42540968473364
210
0
220
0
230
1
100
AcDbArc
50
90.119771421730675
51
93.268326522572735
0
LINE
5
177
100
AcDbEntity
8
0
100
AcDbLine
10
1983.8673001690909
20
1713.1168994338655
30
0
11
1996.6686016389929
21
1713.1440493319119
31
0
0
ARC
5
178
100
AcDbEntity
8
0
100
AcDbCircle
10
1487.650173251624
20
1615.1082337699727
30
0
40
3.0253999999998706
210
0
220
-0
230
1
100
AcDbArc
50
4.1325315103198479
51
124.97784315775016
0
SPLINE
5
179
100
AcDbEntity
8
0
100
AcDbSpline
70
0
71
3
72
8
73
4
74
0
42
0.000000001
43
0.0000000001
44
0.0000000001
40
0.077789707184523785
40
0.077789707184523785
40
0.077789707184523785
40
0.077789707184523785
40
0.14285714285714279
40
0.14285714285714279
40
0.14285714285714279
40
0.14285714285714279
10
1490.667707293909
20
1615.3262554745174
30
0
10
1496.1338780083383
20
1607.3153094369388
30
0
10
1497.7469449310684
20
1604.754615810059
30
0
10
1505.070532989791
20
1596.4590618303728
30
0
0
SPLINE
5
180
100
AcDbEntity
8
0
100
AcDbSpline
70
0
71
3
72
8
73
4
74
0
42
0.000000001
43
0.0000000001
44
0.0000000001
40
0.14285714285714279
40
0.14285714285714279
40
0.14285714285714279
40
0.14285714285714279
40
0.2142857142857143
40
0.2142857142857143
40
0.2142857142857143
40
0.2142857142857143
10
1505.070532989791
20
1596.4590618303728
30
0
10
1519.321691867101
20
1580.3160696780551
30
0
10
1536.3322223791204
20
1565.0914558494192
30
0
10
1553.9221981216242
20
1552.6535890207117
30
0
0
SPLINE
5
181
100
AcDbEntity
8
0
100
AcDbSpline
70
0
71
3
72
8
73
4
74
0
42
0.000000001
43
0.0000000001
44
0.0000000001
40
0.2142857142857143
40
0.2142857142857143
40
0.2142857142857143
40
0.2142857142857143
40
0.2857142857142857
40
0.2857142857142857
40
0.2857142857142857
40
0.2857142857142857
10
1553.9221981216242
20
1552.6535890207117
30
0
10
1559.7841111479038
20
1548.5088283675609
30
0
10
1566.8896479084515
20
1543.5786554503675
30
0
10
1572.9881623055587
20
1539.8370296397979
30
0
0
SPLINE
5
182
100
AcDbEntity
8
0
100
AcDbSpline
70
0
71
3
72
8
73
4
74
0
42
0.000000001
43
0.0000000001
44
0.0000000001
40
0.2857142857142857
40
0.2857142857142857
40
0.2857142857142857
40
0.2857142857142857
40
0.3571428571428571
40
0.3571428571428571
40
0.3571428571428571
40
0.3571428571428571
10
1572.9881623055587
20
1539.8370296397979
30
0
10
1574.0486318106191
20
1539.1862129214189
30
0
10
1583.0603413231938
20
1533.4119662432836
30
0
10
1583.1017302682285
20
1532.6575142137156
30
0
0
SPLINE
5
183
100
AcDbEntity
8
0
100
AcDbSpline
70
0
71
3
72
8
73
4
74
0
42
0.000000001
43
0.0000000001
44
0.0000000001
40
0.3571428571428571
40
0.3571428571428571
40
0.3571428571428571
40
0.3571428571428571
40
0.42857142857142849
40
0.42857142857142849
40
0.42857142857142849
40
0.42857142857142849
10
1583.1017302682285
20
1532.6575142137156
30
0
10
1583.1209582033234
20
1532.3075006155489
30
0
10
1582.6282016293676
20
1532.0832833385111
30
0
10
1582.2618931709512
20
1532.1435743214354
30
0
0
LINE
5
184
100
AcDbEntity
8
0
100
AcDbLine
10
1582.2618931709517
20
1532.1435743214354
30
0
11
1564.9955333530097
21
1535.5645172822881
31
0
0
SPLINE
5
185
100
AcDbEntity
8
0
100
AcDbSpline
70
0
71
3
72
8
73
4
74
0
42
0.000000001
43
0.0000000001
44
0.0000000001
40
0.5
40
0.5
40
0.5
40
0.5
40
0.5714285714285714
40
0.5714285714285714
40
0.5714285714285714
40
0.5714285714285714
10
1564.9955333530097
20
1535.5645172822881
30
0
10
1552.1815811497356
20
1538.5490838856501
30
0
10
1530.1655954661687
20
1541.9703527437077
30
0
10
1517.0290050299479
20
1542.8124711214195
30
0
0
SPLINE
5
186
100
AcDbEntity
8
0
100
AcDbSpline
70
0
71
3
72
8
73
4
74
0
42
0.000000001
43
0.0000000001
44
0.0000000001
40
0.5714285714285714
40
0.5714285714285714
40
0.5714285714285714
40
0.5714285714285714
40
0.64285714285714279
40
0.64285714285714279
40
0.64285714285714279
40
0.64285714285714279
10
1517.0290050299479
20
1542.8124711214195
30
0
10
1496.7282163362797
20
1544.1131268665622
30
0
10
1485.8162002213676
20
1543.3495497152546
30
0
10
1465.9948063162501
20
1540.4304884500971
30
0
0
SPLINE
5
187
100
AcDbEntity
8
0
100
AcDbSpline
70
0
71
3
72
8
73
4
74
0
42
0.000000001
43
0.0000000001
44
0.0000000001
40
0.64285714285714279
40
0.64285714285714279
40
0.64285714285714279
40
0.64285714285714279
40
0.71428571428571419
40
0.71428571428571419
40
0.71428571428571419
40
0.71428571428571419
10
1465.9948063162501
20
1540.4304884500971
30
0
10
1461.7825849416647
20
1539.810306068988
30
0
10
1453.0439772868772
20
1537.695233208558
30
0
10
1449.4558490598615
20
1538.2108025868633
30
0
0
SPLINE
5
188
100
AcDbEntity
8
0
100
AcDbSpline
70
0
71
3
72
8
73
4
74
0
42
0.000000001
43
0.0000000001
44
0.0000000001
40
0.71428571428571419
40
0.71428571428571419
40
0.71428571428571419
40
0.71428571428571419
40
0.7857142857142857
40
0.7857142857142857
40
0.7857142857142857
40
0.7857142857142857
10
1449.4558490598615
20
1538.2108025868633
30
0
10
1444.1104831035018
20
1538.9786164018358
30
0
10
1436.7670413833059
20
1549.7231213533794
30
0
10
1433.8147386032392
20
1553.8955832689549
30
0
0
SPLINE
5
189
100
AcDbEntity
8
0
100
AcDbSpline
70
0
71
3
72
8
73
4
74
0
42
0.000000001
43
0.0000000001
44
0.0000000001
40
0.7857142857142857
40
0.7857142857142857
40
0.7857142857142857
40
0.7857142857142857
40
0.8571428571428571
40
0.8571428571428571
40
0.8571428571428571
40
0.8571428571428571
10
1433.8147386032392
20
1553.8955832689549
30
0
10
1426.3474559451447
20
1564.4491124583701
30
0
10
1416.1511100924058
20
1582.5784480751438
30
0
10
1414.6969567637097
20
1595.6387785653953
30
0
0
SPLINE
5
190
100
AcDbEntity
8
0
100
AcDbSpline
70
0
71
3
72
8
73
4
74
0
42
0.000000001
43
0.0000000001
44
0.0000000001
40
0.8571428571428571
40
0.8571428571428571
40
0.8571428571428571
40
0.8571428571428571
40
0.92857142857142838
40
0.92857142857142838
40
0.92857142857142838
40
0.92857142857142838
10
1414.6969567637097
20
1595.6387785653953
30
0
10
1414.5366153388511
20
1597.0779406226618
30
0
10
1417.2018026813162
20
1598.4069494246392
30
0
10
1418.593383746653
20
1599.2790503452111
30
0
0
SPLINE
5
191
100
AcDbEntity
8
0
100
AcDbSpline
70
0
71
3
72
8
73
4
74
0
42
0.000000001
43
0.0000000001
44
0.0000000001
40
0.92857142857142838
40
0.92857142857142838
40
0.92857142857142838
40
0.92857142857142838
40
1
40
1
40
1
40
1
10
1418.593383746653
20
1599.2790503452111
30
0
10
1434.0650276566766
20
1608.9764475770994
30
0
10
1456.0771025737836
20
1615.0717030021567
30
0
10
1474.3055109408765
20
1616.6086342209223
30
0
0
LINE
5
192
100
AcDbEntity
8
0
100
AcDbLine
10
1474.3055109408763
20
1616.6086342209223
30
0
11
1485.9158335993698
21
1617.5871672363287
31
0
0
ARC
5
193
100
AcDbEntity
8
0
100
AcDbCircle
10
1752.4380255477538
20
1812.0749038352685
30
0
40
3.0253999999998342
210
0
220
-0
230
1
100
AcDbArc
50
3.7855990266214108
51
168.42261588966596
0
SPLINE
5
194
100
AcDbEntity
8
0
100
AcDbSpline
70
0
71
3
72
8
73
4
74
0
42
0.000000001
43
0.0000000001
44
0.0000000001
40
0.077182171131954011
40
0.077182171131954011
40
0.077182171131954011
40
0.077182171131954011
40
0.14285714285714279
40
0.14285714285714279
40
0.14285714285714279
40
0.14285714285714279
10
1755.4568244103948
20
1812.2746501416641
30
0
10
1766.2198083807693
20
1801.4925212194935
30
0
10
1777.7018210047672
20
1790.029174191427
30
0
10
1786.1725153654743
20
1777.398493633483
30
0
0
SPLINE
5
195
100
AcDbEntity
8
0
100
AcDbSpline
70
0
71
3
72
8
73
4
74
0
42
0.000000001
43
0.0000000001
44
0.0000000001
40
0.14285714285714279
40
0.14285714285714279
40
0.14285714285714279
40
0.14285714285714279
40
0.2142857142857143
40
0.2142857142857143
40
0.2142857142857143
40
0.2142857142857143
10
1786.1725153654743
20
1777.398493633483
30
0
10
1790.7963449099705
20
1770.5038123645679
30
0
10
1796.4115537520672
20
1758.7900891253637
30
0
10
1798.9333463243336
20
1750.8841488293433
30
0
0
SPLINE
5
196
100
AcDbEntity
8
0
100
AcDbSpline
70
0
71
3
72
8
73
4
74
0
42
0.000000001
43
0.0000000001
44
0.0000000001
40
0.2142857142857143
40
0.2142857142857143
40
0.2142857142857143
40
0.2142857142857143
40
0.2857142857142857
40
0.2857142857142857
40
0.2857142857142857
40
0.2857142857142857
10
1798.9333463243336
20
1750.8841488293433
30
0
10
1803.618118646164
20
1736.1969394917471
30
0
10
1803.4339867253407
20
1725.4257109693938
30
0
10
1803.3596821626018
20
1710.0928992686988
30
0
0
SPLINE
5
197
100
AcDbEntity
8
0
100
AcDbSpline
70
0
71
3
72
8
73
4
74
0
42
0.000000001
43
0.0000000001
44
0.0000000001
40
0.2857142857142857
40
0.2857142857142857
40
0.2857142857142857
40
0.2857142857142857
40
0.3571428571428571
40
0.3571428571428571
40
0.3571428571428571
40
0.3571428571428571
10
1803.3596821626018
20
1710.0928992686988
30
0
10
1803.2280196917832
20
1682.8403972952412
30
0
10
1801.3456374357206
20
1673.1707013257778
30
0
10
1793.3419279782015
20
1647.5062964322703
30
0
0
SPLINE
5
198
100
AcDbEntity
8
0
100
AcDbSpline
70
0
71
3
72
8
73
4
74
0
42
0.000000001
43
0.0000000001
44
0.0000000001
40
0.3571428571428571
40
0.3571428571428571
40
0.3571428571428571
40
0.3571428571428571
40
0.42857142857142849
40
0.42857142857142849
40
0.42857142857142849
40
0.42857142857142849
10
1793.3419279782015
20
1647.5062964322703
30
0
10
1785.3825405405614
20
1621.9836568229366
30
0
10
1775.3524022623715
20
1598.4265032569392
30
0
10
1766.3058217488617
20
1573.441919933055
30
0
0
SPLINE
5
199
100
AcDbEntity
8
0
100
AcDbSpline
70
0
71
3
72
8
73
4
74
0
42
0.000000001
43
0.0000000001
44
0.0000000001
40
0.42857142857142849
40
0.42857142857142849
40
0.42857142857142849
40
0.42857142857142849
40
0.5
40
0.5
40
0.5
40
0.5
10
1766.3058217488617
20
1573.441919933055
30
0
10
1762.9516877150336
20
1564.1782918810177
30
0
10
1759.0490686851956
20
1551.3675986497938
30
0
10
1756.4953381868395
20
1541.8289133567391
30
0
0
SPLINE
5
200
100
AcDbEntity
8
0
100
AcDbSpline
70
0
71
3
72
8
73
4
74
0
42
0.000000001
43
0.0000000001
44
0.0000000001
40
0.5
40
0.5
40
0.5
40
0.5
40
0.5714285714285714
40
0.5714285714285714
40
0.5714285714285714
40
0.5714285714285714
10
1756.4953381868395
20
1541.8289133567391
30
0
10
1756.4920792147893
20
1541.817181057359
30
0
10
1751.7577705177996
20
1524.7668910863304
30
0
10
1750.8501468018831
20
1527.5520086002339
30
0
0
SPLINE
5
201
100
AcDbEntity
8
0
100
AcDbSpline
70
0
71
3
72
8
73
4
74
0
42
0.000000001
43
0.0000000001
44
0.0000000001
40
0.5714285714285714
40
0.5714285714285714
40
0.5714285714285714
40
0.5714285714285714
40
0.64285714285714279
40
0.64285714285714279
40
0.64285714285714279
40
0.64285714285714279
10
1750.8501468018831
20
1527.5520086002339
30
0
10
1748.6428450324388
20
1534.327737389325
30
0
10
1746.6789884751274
20
1544.3510318262101
30
0
10
1744.3986857317641
20
1551.8509042048045
30
0
0
SPLINE
5
202
100
AcDbEntity
8
0
100
AcDbSpline
70
0
71
3
72
8
73
4
74
0
42
0.000000001
43
0.0000000001
44
0.0000000001
40
0.64285714285714279
40
0.64285714285714279
40
0.64285714285714279
40
0.64285714285714279
40
0.71428571428571419
40
0.71428571428571419
40
0.71428571428571419
40
0.71428571428571419
10
1744.3986857317641
20
1551.8509042048045
30
0
10
1733.4394145221279
20
1587.8954609746686
30
0
10
1706.0223344601468
20
1650.4432820437025
30
0
10
1701.7670946545018
20
1683.2353847076977
30
0
0
SPLINE
5
203
100
AcDbEntity
8
0
100
AcDbSpline
70
0
71
3
72
8
73
4
74
0
42
0.000000001
43
0.0000000001
44
0.0000000001
40
0.71428571428571419
40
0.71428571428571419
40
0.71428571428571419
40
0.71428571428571419
40
0.7857142857142857
40
0.7857142857142857
40
0.7857142857142857
40
0.7857142857142857
10
1701.7670946545018
20
1683.2353847076977
30
0
10
1699.4043399182742
20
1701.4429356536707
30
0
10
1699.1882700713613
20
1721.4337961053866
30
0
10
1702.0626834194343
20
1739.6009357979401
30
0
0
SPLINE
5
204
100
AcDbEntity
8
0
100
AcDbSpline
70
0
71
3
72
8
73
4
74
0
42
0.000000001
43
0.0000000001
44
0.0000000001
40
0.7857142857142857
40
0.7857142857142857
40
0.7857142857142857
40
0.7857142857142857
40
0.8571428571428571
40
0.8571428571428571
40
0.8571428571428571
40
0.8571428571428571
10
1702.0626834194343
20
1739.6009357979401
30
0
10
1703.3871296605412
20
1747.9712796110809
30
0
10
1710.1113666912431
20
1765.2304696905128
30
0
10
1714.5657296891409
20
1772.4702760995194
30
0
0
SPLINE
5
205
100
AcDbEntity
8
0
100
AcDbSpline
70
0
71
3
72
8
73
4
74
0
42
0.000000001
43
0.0000000001
44
0.0000000001
40
0.8571428571428571
40
0.8571428571428571
40
0.8571428571428571
40
0.8571428571428571
40
0.92857142857142838
40
0.92857142857142838
40
0.92857142857142838
40
0.92857142857142838
10
1714.5657296891409
20
1772.4702760995194
30
0
10
1722.7496603010236
20
1785.7717705214686
30
0
10
1731.9862388850465
20
1796.7620019655797
30
0
10
1743.1935178676854
20
1807.5987358261375
30
0
0
ARC
5
206
100
AcDbEntity
8
0
100
AcDbCircle
10
1767.6516439684965
20
1782.2982477253945
30
0
40
35.189694947512926
210
0
220
0
230
1
100
AcDbArc
50
127.22481895232366
51
134.03013421200964
0
LINE
5
207
100
AcDbEntity
8
0
100
AcDbLine
10
1746.3638458778953
20
1810.3186738990416
30
0
11
1749.4741786930219
21
1812.6820751304526
31
0
0
SPLINE
5
208
100
AcDbEntity
8
0
100
AcDbSpline
70
0
71
3
72
8
73
4
74
0
42
0.000000001
43
0.0000000001
44
0.0000000001
40
0.5
40
0.5
40
0.5
40
0.5
40
0.5625
40
0.5625
40
0.5625
40
0.5625
10
1707.5009300792176
20
1507.6422965525621
30
0
10
1706.4574072288174
20
1506.6026844686216
30
0
10
1698.8653059412093
20
1512.1129544107098
30
0
10
1697.5894183836458
20
1512.8719690011476
30
0
0
SPLINE
5
209
100
AcDbEntity
8
0
100
AcDbSpline
70
0
71
3
72
8
73
4
74
0
42
0.000000001
43
0.0000000001
44
0.0000000001
40
0.5625
40
0.5625
40
0.5625
40
0.5625
40
0.625
40
0.625
40
0.625
40
0.625
10
1697.5894183836458
20
1512.8719690011476
30
0
10
1668.5474148575508
20
1530.1438690715745
30
0
10
1637.2045770641766
20
1542.6651655847609
30
0
10
1606.5591592894964
20
1556.9414185468563
30
0
0
SPLINE
5
210
100
AcDbEntity
8
0
100
AcDbSpline
70
0
71
3
72
8
73
4
74
0
42
0.000000001
43
0.0000000001
44
0.0000000001
40
0.625
40
0.625
40
0.625
40
0.625
40
0.6875
40
0.6875
40
0.6875
40
0.6875
10
1606.5591592894964
20
1556.9414185468563
30
0
10
1595.6908134000541
20
1562.0042316264833
30
0
10
1574.5798442547634
20
1573.8701488604213
30
0
10
1565.2370231819123
20
1580.5285546557134
30
0
0
SPLINE
5
211
100
AcDbEntity
8
0
100
AcDbSpline
70
0
71
3
72
8
73
4
74
0
42
0.000000001
43
0.0000000001
44
0.0000000001
40
0.6875
40
0.6875
40
0.6875
40
0.6875
40
0.75
40
0.75
40
0.75
40
0.75
10
1565.2370231819123
20
1580.5285546557134
30
0
10
1547.4772549956049
20
1593.1860762005886
30
0
10
1533.2355471372393
20
1606.8936385399641
30
0
10
1520.1396938516432
20
1624.2900313426999
30
0
0
SPLINE
5
212
100
AcDbEntity
8
0
100
AcDbSpline
70
0
71
3
72
8
73
4
74
0
42
0.000000001
43
0.0000000001
44
0.0000000001
40
0.75
40
0.75
40
0.75
40
0.75
40
0.8125
40
0.8125
40
0.8125
40
0.8125
10
1520.1396938516432
20
1624.2900313426999
30
0
10
1512.6616565857835
20
1634.2237040482109
30
0
10
1506.2711382929997
20
1652.8594839215498
30
0
10
1504.0406978220005
20
1665.0405437527195
30
0
0
SPLINE
5
213
100
AcDbEntity
8
0
100
AcDbSpline
70
0
71
3
72
8
73
4
74
0
42
0.000000001
43
0.0000000001
44
0.0000000001
40
0.8125
40
0.8125
40
0.8125
40
0.8125
40
0.875
40
0.875
40
0.875
40
0.875
10
1504.0406978220005
20
1665.0405437527195
30
0
10
1501.312938216176
20
1679.9373049931287
30
0
10
1500.6393086934474
20
1694.0711408766401
30
0
10
1502.057613329594
20
1709.1184666257577
30
0
0
SPLINE
5
214
100
AcDbEntity
8
0
100
AcDbSpline
70
0
71
3
72
8
73
4
74
0
42
0.000000001
43
0.0000000001
44
0.0000000001
40
0.875
40
0.875
40
0.875
40
0.875
40
0.9375
40
0.9375
40
0.9375
40
0.9375
10
1502.057613329594
20
1709.1184666257577
30
0
10
1502.1720032485478
20
1710.3330855087816
30
0
10
1502.831945088667
20
1711.5864861591995
30
0
10
1504.1260828897093
20
1711.8384046986623
30
0
0
SPLINE
5
215
100
AcDbEntity
8
0
100
AcDbSpline
70
0
71
3
72
8
73
4
74
0
42
0.000000001
43
0.0000000001
44
0.0000000001
40
0.9375
40
0.9375
40
0.9375
40
0.9375
40
1
40
1
40
1
40
1
10
1504.1260828897093
20
1711.8384046986623
30
0
10
1510.1942888467522
20
1713.0188043751609
30
0
10
1516.7076703858208
20
1713.0764881804455
30
0
10
1522.8791857568472
20
1713.039987693486
30
0
0
SPLINE
5
216
100
AcDbEntity
8
0
100
AcDbSpline
70
0
71
3
72
8
73
4
74
0
42
0.000000001
43
0.0000000001
44
0.0000000001
40
0
40
0
40
0
40
0
40
0.0625
40
0.0625
40
0.0625
40
0.0625
10
1522.8791857568472
20
1713.039987693486
30
0
10
1535.9828605753637
20
1712.9617723642868
30
0
10
1551.0380078574012
20
1711.227999233703
30
0
10
1563.4739193028786
20
1706.9659155867535
30
0
0
SPLINE
5
217
100
AcDbEntity
8
0
100
AcDbSpline
70
0
71
3
72
8
73
4
74
0
42
0.000000001
43
0.0000000001
44
0.0000000001
40
0.0625
40
0.0625
40
0.0625
40
0.0625
40
0.125
40
0.125
40
0.125
40
0.125
10
1563.4739193028786
20
1706.9659155867535
30
0
10
1579.065167487136
20
1701.6228309108287
30
0
10
1588.2557945652543
20
1696.6049916454913
30
0
10
1601.4279077968199
20
1686.8903218617381
30
0
0
SPLINE
5
218
100
AcDbEntity
8
0
100
AcDbSpline
70
0
71
3
72
8
73
4
74
0
42
0.000000001
43
0.0000000001
44
0.0000000001
40
0.125
40
0.125
40
0.125
40
0.125
40
0.1875
40
0.1875
40
0.1875
40
0.1875
10
1601.4279077968199
20
1686.8903218617381
30
0
10
1610.3799781208807
20
1680.2879703857056
30
0
10
1620.4013171745355
20
1668.1971840803199
30
0
10
1627.1337016353623
20
1659.382642376768
30
0
0
SPLINE
5
219
100
AcDbEntity
8
0
100
AcDbSpline
70
0
71
3
72
8
73
4
74
0
42
0.000000001
43
0.0000000001
44
0.0000000001
40
0.1875
40
0.1875
40
0.1875
40
0.1875
40
0.25
40
0.25
40
0.25
40
0.25
10
1627.1337016353623
20
1659.382642376768
30
0
10
1635.598881535157
20
1648.2988784348229
30
0
10
1647.8747774529807
20
1626.8206231395006
30
0
10
1654.2340096140861
20
1614.2334953909049
30
0
0
LINE
5
220
100
AcDbEntity
8
0
100
AcDbLine
10
1654.2340096140861
20
1614.2334953909049
30
0
11
1670.7032248686053
21
1580.5705953951579
31
0
0
LINE
5
221
100
AcDbEntity
8
0
100
AcDbLine
10
1670.7032248686053
20
1580.5705953951579
30
0
11
1676.0085054687499
21
1568.6935976562499
31
0
0
SPLINE
5
222
100
AcDbEntity
8
0
100
AcDbSpline
70
0
71
3
72
8
73
4
74
0
42
0.000000001
43
0.0000000001
44
0.0000000001
40
0.375
40
0.375
40
0.375
40
0.375
40
0.4375
40
0.4375
40
0.4375
40
0.4375
10
1676.0085054687499
20
1568.6935976562499
30
0
10
1680.8878384219638
20
1558.0963982413653
30
0
10
1697.9961380954824
20
1521.8070926705482
30
0
10
1704.1448406621594
20
1514.0109797326118
30
0
0
SPLINE
5
223
100
AcDbEntity
8
0
100
AcDbSpline
70
0
71
3
72
8
73
4
74
0
42
0.000000001
43
0.0000000001
44
0.0000000001
40
0.4375
40
0.4375
40
0.4375
40
0.4375
40
0.5
40
0.5
40
0.5
40
0.5
10
1704.1448406621594
20
1514.0109797326118
30
0
10
1704.7268930702835
20
1513.2728225632941
30
0
10
1708.3645576724598
20
1508.5026651737539
30
0
10
1707.5009300792176
20
1507.6422965525621
30
0
0
SPLINE
5
224
100
AcDbEntity
8
0
100
AcDbSpline
70
0
71
3
72
8
73
4
74
0
42
0.000000001
43
0.0000000001
44
0.0000000001
40
0.1764705882352941
40
0.1764705882352941
40
0.1764705882352941
40
0.1764705882352941
40
0.23529411764705879
40
0.23529411764705879
40
0.23529411764705879
40
0.23529411764705879
10
2090.9541886562338
20
1477.0881299952807
30
0
10
2095.0200821857757
20
1473.347807773531
30
0
10
2099.5731920367875
20
1467.7453089224291
30
0
10
2102.8377043392416
20
1463.196761632287
30
0
0
LINE
5
225
100
AcDbEntity
8
0
100
AcDbLine
10
2102.837704339242
20
1463.196761632287
30
0
11
1818.4923929794286
21
1463.8009750503513
31
0
0
SPLINE
5
226
100
AcDbEntity
8
0
100
AcDbSpline
70
0
71
3
72
8
73
4
74
0
42
0.000000001
43
0.0000000001
44
0.0000000001
40
0.76470588235294112
40
0.76470588235294112
40
0.76470588235294112
40
0.76470588235294112
40
0.82352941176470584
40
0.82352941176470584
40
0.82352941176470584
40
0.82352941176470584
10
1818.4923929794286
20
1463.8009750503513
30
0
10
1824.2298132733999
20
1465.7110585688383
30
0
10
1829.1798659200977
20
1466.2285833303733
30
0
10
1835.067524825572
20
1468.1015145674908
30
0
0
SPLINE
5
227
100
AcDbEntity
8
0
100
AcDbSpline
70
0
71
3
72
8
73
4
74
0
42
0.000000001
43
0.0000000001
44
0.0000000001
40
0.82352941176470584
40
0.82352941176470584
40
0.82352941176470584
40
0.82352941176470584
40
0.88235294117647056
40
0.88235294117647056
40
0.88235294117647056
40
0.88235294117647056
10
1835.067524825572
20
1468.1015145674908
30
0
10
1852.6920456718058
20
1473.7075982878478
30
0
10
1870.002075715217
20
1479.7347411970609
30
0
10
1887.348280348383
20
1486.1470946025802
30
0
0
ELLIPSE
5
228
100
AcDbEntity
8
0
100
AcDbEllipse
10
1840.1504028234658
20
1371.9693237830334
30
0
11
-342.35321695249633
21
-149.58621996179241
31
0.0
40
0.23625997042976588
41
4.3049620319848803
42
4.4719551590866775
0
SPLINE
5
229
100
AcDbEntity
8
0
100
AcDbSpline
70
0
71
3
72
8
73
4
74
0
42
0.000000001
43
0.0000000001
44
0.0000000001
40
0.94117647058823517
40
0.94117647058823517
40
0.94117647058823517
40
0.94117647058823517
40
1
40
1
40
1
40
1
10
1943.3589293823838
20
1505.5060403738071
30
0
10
1959.8467207775877
20
1510.793722524882
30
0
10
1977.4337634452468
20
1513.6684617701601
30
0
10
1994.7307576004582
20
1514.3297071990989
30
0
0
SPLINE
5
230
100
AcDbEntity
8
0
100
AcDbSpline
70
0
71
3
72
8
73
4
74
0
42
0.000000001
43
0.0000000001
44
0.0000000001
40
0
40
0
40
0
40
0
40
0.058823529411764698
40
0.058823529411764698
40
0.058823529411764698
40
0.058823529411764698
10
1994.7307576004582
20
1514.3297071990989
30
0
10
2001.550808409429
20
1514.5897731686864
30
0
10
2018.0066618785436
20
1514.7582620236699
30
0
10
2024.3890327412032
20
1513.3709176219982
30
0
0
SPLINE
5
231
100
AcDbEntity
8
0
100
AcDbSpline
70
0
71
3
72
8
73
4
74
0
42
0.000000001
43
0.0000000001
44
0.0000000001
40
0.058823529411764698
40
0.058823529411764698
40
0.058823529411764698
40
0.058823529411764698
40
0.1176470588235294
40
0.1176470588235294
40
0.1176470588235294
40
0.1176470588235294
10
2024.3890327412032
20
1513.3709176219982
30
0
10
2031.1455335951994
20
1511.9024248162818
30
0
10
2044.4972161867181
20
1507.5552819988277
30
0
10
2050.6029003223352
20
1504.5804923116159
30
0
0
SPLINE
5
232
100
AcDbEntity
8
0
100
AcDbSpline
70
0
71
3
72
8
73
4
74
0
42
0.000000001
43
0.0000000001
44
0.0000000001
40
0.1176470588235294
40
0.1176470588235294
40
0.1176470588235294
40
0.1176470588235294
40
0.1764705882352941
40
0.1764705882352941
40
0.1764705882352941
40
0.1764705882352941
10
2050.6029003223352
20
1504.5804923116159
30
0
10
2066.1527595615585
20
1497.0050117814626
30
0
10
2078.2367020256393
20
1488.7881655518752
30
0
10
2090.9541886562338
20
1477.0881299952807
30
0
0
LWPOLYLINE
5
233
100
AcDbEntity
8
0
100
AcDbPolyline
90
8
70
1
43
0.0
10
652.62060546874977
20
1954.8078585866033
42
0.99999999999999989
10
656.89916718035363
20
1950.529296875
10
728.34204375714637
20
1950.529296875
42
0.99999999999999989
10
732.62060546874989
20
1954.8078585866033
10
732.62060546874989
20
1964.2507351633963
42
0.99999999999999989
10
728.34204375714626
20
1968.529296875
10
656.89916718035374
20
1968.5292968749995
42
0.99999999999999989
10
652.62060546874989
20
1964.2507351633963
0
LWPOLYLINE
5
234
100
AcDbEntity
8
0
100
AcDbPolyline
90
8
70
1
43
0.0
10
925.89916718035386
20
1968.529296875
42
0.99999999999999989
10
921.62060546875
20
1964.2507351633972
10
921.62060546875
20
1954.8078585866033
42
0.99999999999999989
10
925.89916718035374
20
1950.529296875
10
997.34204375714648
20
1950.5292968749998
42
0.99999999999999989
10
1001.6206054687501
20
1954.8078585866033
10
1001.6206054687501
20
1964.2507351633967
42
0.99999999999999989
10
997.34204375714637
20
1968.529296875
0
LWPOLYLINE
5
235
100
AcDbEntity
8
0
100
AcDbPolyline
90
8
70
1
43
0.0
10
652.62060546874989
20
1472.8078585866033
42
0.99999999999999989
10
656.89916718035352
20
1468.5292968749993
10
728.34204375714626
20
1468.5292968750002
42
0.99999999999999989
10
732.62060546874989
20
1472.8078585866035
10
732.62060546874989
20
1482.2507351633965
42
0.99999999999999989
10
728.34204375714603
20
1486.529296875
10
656.89916718035374
20
1486.5292968749998
42
0.99999999999999989
10
652.62060546874989
20
1482.2507351633965
0
LWPOLYLINE
5
236
100
AcDbEntity
8
0
100
AcDbPolyline
90
8
70
1
43
0.0
10
925.89916718035397
20
1486.5292968749998
42
0.99999999999999989
10
921.62060546874977
20
1482.2507351633976
10
921.62060546875011
20
1472.8078585866033
42
0.99999999999999989
10
925.89916718035386
20
1468.529296875
10
997.34204375714637
20
1468.5292968749995
42
0.99999999999999989
10
1001.6206054687501
20
1472.8078585866033
10
1001.6206054687501
20
1482.2507351633965
42
0.99999999999999989
10
997.34204375714626
20
1486.529296875
0
LWPOLYLINE
5
237
100
AcDbEntity
8
0
100
AcDbPolyline
90
8
70
1
43
0.0
10
577.12060546875
20
2018.529296875
42
0.41421356237309503
10
527.12060546875
20
1968.529296875
10
527.12060546875
20
1468.529296875
42
0.41421356237309342
10
577.12060546875
20
1418.5292968750002
10
1077.12060546875
20
1418.529296875
42
0.41421356237309587
10
1127.12060546875
20
1468.529296875
10
1127.12060546875
20
1968.529296875
42
0.41421356237309342
10
1077.12060546875
20
2018.5292968749995
0
LWPOLYLINE
5
238
100
AcDbEntity
8
0
100
AcDbPolyline
90
52
70
1
43
0.0
10
78.84191507060153
20
1964.0292069154086
42
0.99999999999999989
10
83.12047678220469
20
1968.3077686270124
10
83.120476782205017
20
2018.5292069154082
10
127.73454694045665
20
2018.5292069154084
42
0.99999999999999989
10
132.01310865206011
20
2022.8077686270117
10
132.01310865206014
20
2036.5292069154084
10
212.01310865206017
20
2036.5292069154086
10
212.01310865206014
20
2022.8077686270121
42
0.99999999999999989
10
216.29167036366366
20
2018.5292069154082
10
371.94928320074661
20
2018.5292069154084
42
0.99999999999999989
10
376.22784491234995
20
2022.8077686270121
10
376.22784491234995
20
2036.5292069154084
10
456.22784491235001
20
2036.5292069154086
10
456.22784491234995
20
2022.8077686270121
42
0.99999998709521587
10
460.50640662395352
20
2018.5292069154082
10
505.12047678220512
20
2018.5292069154084
10
505.12047678220506
20
1960.686978008157
42
0.99999999999999989
10
509.39903849380835
20
1956.4084162965532
10
517.12047678220517
20
1956.4084162965532
10
517.12047678220517
20
1876.4084162965532
10
509.39903849380948
20
1876.4084162965532
42
0.99999999999999989
10
505.12047678220517
20
1872.1298545849504
10
505.12047678220512
20
1744.9285592458677
42
0.99999999999999989
10
509.39903849380835
20
1740.6499975342638
10
517.12047678220517
20
1740.6499975342638
10
517.12047678220517
20
1660.6499975342638
10
509.39903849380948
20
1660.6499975342638
42
0.99999999999999989
10
505.12047678220529
20
1656.3714358226607
10
505.12047678220517
20
1598.5292069154084
10
460.50640662395404
20
1598.5292069154084
42
0.99999999999999989
10
456.22784491235006
20
1594.2506452038051
10
456.22784491235018
20
1580.5292069154079
10
376.22784491235001
20
1580.5292069154079
10
376.22784491235006
20
1594.2506452038056
42
0.99999999999999989
10
371.94928320074621
20
1598.5292069154084
10
216.2916703636642
20
1598.5292069154084
42
0.99999999999999989
10
212.01310865206025
20
1594.2506452038051
10
212.01310865206025
20
1580.5292069154079
10
132.01310865206023
20
1580.5292069154079
10
132.01310865206031
20
1594.2506452038056
42
0.99999999999999989
10
127.73454694045637
20
1598.5292069154084
10
83.120476782205074
20
1598.5292069154084
10
83.120476782205117
20
1648.7506452038053
42
0.99999999999999989
10
78.841915070600919
20
1653.0292069154084
10
65.12047678220506
20
1653.0292069154084
10
65.120476782205046
20
1733.0292069154084
10
78.841915070601701
20
1733.0292069154084
42
0.99999999999999989
10
83.12047678220506
20
1737.3077686270121
10
83.120476782205088
20
1879.7506452038056
42
0.99999999999999989
10
78.841915070601019
20
1884.0292069154084
10
65.120476782204989
20
1884.0292069154084
10
65.120476782204975
20
1964.0292069154084
0
LWPOLYLINE
5
239
100
AcDbEntity
8
0
100
AcDbPolyline
90
10
70
1
43
0.0
10
209.45113900853627
20
1420.5291748042705
42
0.33344663105774131
10
238.25456262015589
20
1442.1409218116846
42
-0.33344663105768241
10
257.45684502803527
20
1456.5487531500664
10
320.78394185094101
20
1456.5487531497006
42
-0.33344663105612815
10
339.98622425838556
20
1442.1409218117449
42
0.33344663105608285
10
368.78964786915446
20
1420.5291748046873
10
517.12039343884555
20
1420.5291748046875
10
517.12039343884555
20
1570.5291748046873
10
61.120393438845326
20
1570.5291748046875
10
61.120393438845326
20
1420.5291748046875
0
ARC
5
240
100
AcDbEntity
8
0
100
AcDbCircle
10
501.25967429464708
20
1457.6684556604887
30
0
40
3.0254000000000074
210
0
220
0
230
1
100
AcDbArc
50
134.99999999999696
51
314.99999999999392
0
LINE
5
241
100
AcDbEntity
8
0
100
AcDbLine
10
503.39895515044873
20
1455.5291748046866
30
0
11
517.12039343884555
21
1455.5291748046873
31
0
0
LINE
5
242
100
AcDbEntity
8
0
100
AcDbLine
10
517.12039343884555
20
1535.5291748046873
30
0
11
503.39895515044873
21
1535.5291748046873
31
0
0
ARC
5
243
100
AcDbEntity
8
0
100
AcDbCircle
10
501.25967429464708
20
1533.3898939488854
30
0
40
3.0254000000000074
210
0
220
-0
230
1
100
AcDbArc
50
45.000000000003048
51
225.00000000000608
0
LINE
5
244
100
AcDbEntity
8
0
100
AcDbLine
10
499.12039343884544
20
1531.2506130930833
30
0
11
499.12039343884544
21
1459.8077365162906
31
0
0
LINE
5
245
100
AcDbEntity
8
0
100
AcDbLine
10
436.99960281999012
20
1556.8077365162903
30
0
11
436.99960281999012
21
1570.5291748046873
31
0
0
LINE
5
246
100
AcDbEntity
8
0
100
AcDbLine
10
356.99960281999012
20
1570.5291748046873
30
0
11
356.99960281999012
21
1556.8077365162908
31
0
0
ARC
5
247
100
AcDbEntity
8
0
100
AcDbCircle
10
359.13888367579176
20
1554.6684556604887
30
0
40
3.0254000000000074
210
0
220
0
230
1
100
AcDbArc
50
134.99999999999392
51
314.99999999999693
0
LINE
5
248
100
AcDbEntity
8
0
100
AcDbLine
10
361.2781645315934
20
1552.5291748046868
30
0
11
432.72104110838626
21
1552.5291748046875
31
0
0
ARC
5
249
100
AcDbEntity
8
0
100
AcDbCircle
10
434.86032196418819
20
1554.6684556604885
30
0
40
3.0253999999996055
210
0
220
0
230
1
100
AcDbArc
50
-135.00000000001296
51
44.999999999999233
0
LINE
5
250
100
AcDbEntity
8
0
100
AcDbLine
10
221.24118405770076
20
1556.8077365162908
30
0
11
221.24118405770076
21
1570.5291748046875
31
0
0
LINE
5
251
100
AcDbEntity
8
0
100
AcDbLine
10
141.24118405770076
20
1570.5291748046873
30
0
11
141.24118405770076
21
1556.8077365162908
31
0
0
ARC
5
252
100
AcDbEntity
8
0
100
AcDbCircle
10
143.38046491350252
20
1554.6684556604891
30
0
40
3.0253999999998813
210
0
220
0
230
1
100
AcDbArc
50
135.00000000000153
51
314.99999999999432
0
LINE
5
253
100
AcDbEntity
8
0
100
AcDbLine
10
145.51974576930419
20
1552.529174804687
30
0
11
216.96262234609691
21
1552.5291748046875
31
0
0
ARC
5
254
100
AcDbEntity
8
0
100
AcDbCircle
10
219.10190320189898
20
1554.6684556604887
30
0
40
3.0253999999999071
210
0
220
0
230
1
100
AcDbArc
50
-135.00000000001182
51
45.000000000004192
0
LINE
5
255
100
AcDbEntity
8
0
100
AcDbLine
10
74.841831727241726
20
1535.5291748046875
30
0
11
61.120393438845326
21
1535.5291748046875
31
0
0
LINE
5
256
100
AcDbEntity
8
0
100
AcDbLine
10
61.120393438845319
20
1455.5291748046875
30
0
11
74.841831727241726
21
1455.5291748046875
31
0
0
ARC
5
257
100
AcDbEntity
8
0
100
AcDbCircle
10
76.981112583043739
20
1457.6684556604891
30
0
40
3.0254000000000643
210
0
220
0
230
1
100
AcDbArc
50
-135.00000000000497
51
44.999999999991431
0
LINE
5
258
100
AcDbEntity
8
0
100
AcDbLine
10
79.120393438845795
20
1459.8077365162906
30
0
11
79.120393438845454
21
1531.250613093084
31
0
0
ARC
5
259
100
AcDbEntity
8
0
100
AcDbCircle
10
76.981112583043668
20
1533.3898939488859
30
0
40
3.0254000000001016
210
0
220
0
230
1
100
AcDbArc
50
-45.000000000001123
51
135.00000000000398
0
LINE
5
260
100
AcDbEntity
8
0
100
AcDbLine
10
61.120393438845326
20
1535.5291748046875
30
0
11
57.120393438845326
21
1535.5291748046875
31
0
0
LINE
5
261
100
AcDbEntity
8
0
100
AcDbLine
10
57.120393438845326
20
1535.5291748046875
30
0
11
57.120393438845326
21
1455.5291748046875
31
0
0
LINE
5
262
100
AcDbEntity
8
0
100
AcDbLine
10
57.120393438845326
20
1455.5291748046875
30
0
11
61.120393438845319
21
1455.5291748046875
31
0
0
LINE
5
263
100
AcDbEntity
8
0
100
AcDbLine
10
141.24118405770076
20
1570.5291748046873
30
0
11
141.24118405770076
21
1574.0291748046875
31
0
0
LINE
5
264
100
AcDbEntity
8
0
100
AcDbLine
10
141.24118405770076
20
1574.0291748046875
30
0
11
221.24118405770076
21
1574.0291748046875
31
0
0
LINE
5
265
100
AcDbEntity
8
0
100
AcDbLine
10
221.24118405770076
20
1574.0291748046875
30
0
11
221.24118405770076
21
1570.5291748046875
31
0
0
LINE
5
266
100
AcDbEntity
8
0
100
AcDbLine
10
356.99960281999012
20
1574.0291748046875
30
0
11
436.99960281999012
21
1574.0291748046875
31
0
0
LINE
5
267
100
AcDbEntity
8
0
100
AcDbLine
10
436.99960281999012
20
1574.0291748046875
30
0
11
436.99960281999012
21
1570.5291748046873
31
0
0
LINE
5
268
100
AcDbEntity
8
0
100
AcDbLine
10
356.99960281999012
20
1574.0291748046875
30
0
11
356.99960281999012
21
1570.5291748046873
31
0
0
LINE
5
269
100
AcDbEntity
8
0
100
AcDbLine
10
517.12039343884555
20
1535.5291748046873
30
0
11
520.62039343884555
21
1535.5291748046873
31
0
0
LINE
5
270
100
AcDbEntity
8
0
100
AcDbLine
10
520.62039343884555
20
1535.5291748046873
30
0
11
520.62039343884555
21
1455.5291748046873
31
0
0
LINE
5
271
100
AcDbEntity
8
0
100
AcDbLine
10
520.62039343884555
20
1455.5291748046873
30
0
11
517.12039343884555
21
1455.5291748046873
31
0
0
LWPOLYLINE
5
272
100
AcDbEntity
8
0
100
AcDbPolyline
90
16
70
1
43
0.0
10
1488.6802684823638
20
2287.494140625
42
0.99999999999999989
10
1492.9588301939671
20
2291.7727023366033
10
1492.9588301939675
20
2305.4941406250005
10
1565.4588301939668
20
2305.4941406250005
10
1565.4588301939668
20
2155.494140625
10
1109.4588301939671
20
2155.4941406250005
10
1109.4588301939671
20
2305.4941406250005
10
1181.9588301939671
20
2305.4941406250005
10
1181.9588301939671
20
2291.7727023366042
42
0.99999999999999989
10
1186.2373919055703
20
2287.494140625
10
1257.6802684823633
20
2287.494140625
42
0.99999999999999989
10
1261.9588301939671
20
2291.7727023366033
10
1261.9588301939671
20
2305.4941406250005
10
1412.9588301939675
20
2305.4941406250005
10
1412.9588301939671
20
2291.7727023366037
42
0.99999999999999989
10
1417.2373919055703
20
2287.494140625
0
ARC
5
273
100
AcDbEntity
8
0
100
AcDbCircle
10
1549.5981110497682
20
2192.6334214808016
30
0
40
3.0254000000000074
210
0
220
0
230
1
100
AcDbArc
50
134.99999999998784
51
314.99999999999085
0
LINE
5
274
100
AcDbEntity
8
0
100
AcDbLine
10
1551.7373919055697
20
2190.4941406249995
30
0
11
1565.4588301939671
21
2190.494140625
31
0
0
LINE
5
275
100
AcDbEntity
8
0
100
AcDbLine
10
1565.4588301939671
20
2270.494140625
30
0
11
1551.7373919055703
21
2270.494140625
31
0
0
ARC
5
276
100
AcDbEntity
8
0
100
AcDbCircle
10
1549.5981110497682
20
2268.3548597691979
30
0
40
3.0254000000002086
210
0
220
-0
230
1
100
AcDbArc
50
45
51
224.99999999998781
0
LINE
5
277
100
AcDbEntity
8
0
100
AcDbLine
10
1547.4588301939662
20
2266.2155789133967
30
0
11
1547.4588301939671
21
2194.7727023366037
31
0
0
LINE
5
278
100
AcDbEntity
8
0
100
AcDbLine
10
1123.1802684823631
20
2270.4941406250005
30
0
11
1109.4588301939671
21
2270.4941406250005
31
0
0
LINE
5
279
100
AcDbEntity
8
0
100
AcDbLine
10
1109.4588301939671
20
2190.4941406250005
30
0
11
1123.1802684823631
21
2190.4941406250005
31
0
0
ARC
5
280
100
AcDbEntity
8
0
100
AcDbCircle
10
1125.319549338165
20
2192.6334214808021
30
0
40
3.0253999999999071
210
0
220
0
230
1
100
AcDbArc
50
-135.00000000000304
51
45
0
LINE
5
281
100
AcDbEntity
8
0
100
AcDbLine
10
1127.4588301939666
20
2194.7727023366037
30
0
11
1127.4588301939673
21
2266.2155789133972
31
0
0
ARC
5
282
100
AcDbEntity
8
0
100
AcDbCircle
10
1125.319549338165
20
2268.3548597691988
30
0
40
3.0254000000001078
210
0
220
0
230
1
100
AcDbArc
50
-44.999999999990891
51
135.00000000000304
0
LINE
5
283
100
AcDbEntity
8
0
100
AcDbLine
10
1109.4588301939671
20
2270.4941406250005
30
0
11
1105.9588301939673
21
2270.4941406250005
31
0
0
LINE
5
284
100
AcDbEntity
8
0
100
AcDbLine
10
1105.9588301939673
20
2270.4941406250005
30
0
11
1105.9588301939673
21
2190.4941406250005
31
0
0
LINE
5
285
100
AcDbEntity
8
0
100
AcDbLine
10
1105.9588301939673
20
2190.4941406250005
30
0
11
1109.4588301939671
21
2190.4941406250005
31
0
0
LINE
5
286
100
AcDbEntity
8
0
100
AcDbLine
10
1565.4588301939671
20
2270.494140625
30
0
11
1568.958830193965
21
2270.494140625
31
0
0
LINE
5
287
100
AcDbEntity
8
0
100
AcDbLine
10
1568.958830193965
20
2270.494140625
30
0
11
1568.9588301939684
21
2190.494140625
31
0
0
LINE
5
288
100
AcDbEntity
8
0
100
AcDbLine
10
1568.9588301939684
20
2190.494140625
30
0
11
1565.4588301939671
21
2190.494140625
31
0
0
LWPOLYLINE
5
289
100
AcDbEntity
8
0
100
AcDbPolyline
90
4
70
1
43
0.0
10
-53.650024414063218
20
2596.35009765625
10
2386.3499755859366
20
2596.35009765625
10
2386.3499755859366
20
1376.35009765625
10
-53.650024414063218
20
1376.35009765625
0
ENDSEC
0
SECTION
2
OBJECTS
0
DICTIONARY
5
C
100
AcDbDictionary
3
ACAD_GROUP
350
D
3
ACAD_MLINESTYLE
350
17
0
DICTIONARY
5
D
100
AcDbDictionary
0
DICTIONARY
5
1A
330
C
100
AcDbDictionary
0
DICTIONARY
5
17
100
AcDbDictionary
0
ENDSEC
0
EOF
